Song name
# A B C D E F G H I J K L M N O P Q R S T U V W X Y Z

Rebelution - Route Around Acoustic tab

-----------------------------------------------------------------
Route Around Acoustic- Rebelution
-----------------------------------------------------------------
Tabbed by: Elijah Calamaco/David Zavala
Tuning: Standard

Chords
  A     F#m    G#m    C#m
e|--5------2------4------4---------------------------------------|
B|--5------2------4------5---------------------------------------|
G|--6------2------4------6---------------------------------------| 
D|--7------4------6------6---------------------------------------|
A|--7------4------6------4---------------------------------------|
E|--5------2------4------x---------------------------------------|

2nd guitar
e|---------------------------------------------------------------|
B|--10--9--7--5--0--9h10--9--7--5--7--0--9h10--9--7--5-----------|
G|---------------------------------------------------------------|
D|---------------------------------------------------------------|
A|---------------------------------------------------------------|
E|---------------------------------------------------------------|
                 X5
e|------------------12---4--5s7--7---7-7-7---9--7----------------|
B|--9--10--12---10-------5--7s9--9---9-9-9--10--9----------------|
G|-----------------9---------------------------------------------|
D|---------------------------------------------------------------|
A|---------------------------------------------------------------|
E|---------------------------------------------------------------|

e|--7-7-7--9---5---5-5-5--7--4-----------------------------------|
B|--9-9-9--10--7---7-7-7--9--5-----------------------------------|
G|---------------------------------------------------------------|
D|---------------------------------------------------------------|
A|---------------------------------------------------------------|
E|---------------------------------------------------------------|

e|---------------------------------------------------------------|
B|---------------------------------------------------------------|
G|---------------------------------------------------------------|
D|--7--6--7--9--------6--6h7--6--------7--6------6h7--6----------|
A|--------------7--9-------------9--7--------9-----------9--7----|
E|---------------------------------------------------------------|

e|---------------------------------------------------------------|
B|---------------------------------------------------------------|
G|---------------------------------------------------------------|
D|--6--7s9-------------------------------------------------------|
A|--7--9s11------------------------------------------------------|
E|---------------------------------------------------------------|

|s slide
|x mute note


Tap to rate this tab
 
# A B C D E F G H I J K L M N O P Q R S T U V W X Y Z