Song name
# A B C D E F G H I J K L M N O P Q R S T U V W X Y Z

Rebelution - Bright Side Of Life tab

Just listen to the song to get the timing right

~  Vibrato
h  hammer on
^  bend
r  release bend
p  pull off

e--------------------------------------------------------------------------|
b--------------------------------------------------------------------------|
g--------------7~~~~---------10--12^12^12^12^r-p10-------------------------|
d---------------------10-h12-----------------------12~~~~~~~~~-------------|
a------5--5----------------------------------------------------------------|
e--------------------------------------------------------------------------|


e-----15-12-----------------------------------------------------------------|
b--------------15-13--------------------------------------------------------|
g-----------------------14-12-----------10--12^--10h12^~~~~~~~~~~~~~~~~~~~~-|
d--------------------------------10h12--------------------------------------|
a---------------------------------------------------------------------------|
e---------------------------------------------------------------------------|


e-----------------------------------13p12p10/9/10~~~-13/15--13-12----------|
b-----------------------------10-13----------------------------------------|
g------------------------9-12----------------------------------------------|
d---------------10-11-12---------------------------------------------------|
a------10-11-12------------------------------------------------------------|
e--------------------------------------------------------------------------|
Tap to rate this tab
 
# A B C D E F G H I J K L M N O P Q R S T U V W X Y Z