Song name
# A B C D E F G H I J K L M N O P Q R S T U V W X Y Z

Rebelution - Meant To Be Acoustic tab

Capo 6th fret - tab relative to capo

part a
e------------------------------------------------------------Repeat-2x--|
b------0-----------------------------------0----------------------------|
g----0---0-----0-------0---------------------0-----0--------------------|
d--2---------0-------0---0------------0h2--------0----------------------|
a----------2-----3----------3-2----------------2-----3------------------|
E-----------------------------------------------------------------------|



part b
e------------------------------------------------------------Repeat-2x--|
b------0----------3---1p0-------------0---------------------------------|
g--0h2---0-----0----0-----2-------0h2---0-----0-------------------------|
d------------0------------------------------0---------------------------|
a----------2------------------------------2-----3-----------------------|
E-----------------------------------------------------------------------|

For the intro part a is played twice, then part b is played twice. 
The first verse is part a played four times.                          -mjs-
Tap to rate this tab
 
# A B C D E F G H I J K L M N O P Q R S T U V W X Y Z