Song name
# A B C D E F G H I J K L M N O P Q R S T U V W X Y Z

Rebelution - Outta Control tab

-4h5p4---4h5p4--------4h5p4---4h5p4----7-5--4h5p4---4h5p4--------4h5p4---|
-------7-------7--5h7-------7-------7-7-----------7-------7--5h7-------7-|
-------------------------------------------------------------------------|
-------------------------------------------------------------------------|
-------------------------------------------------------------------------|
-------------------------------------------------------------------------|

-4h5p4----7-5--4h5p4---4h5p4-------4h5p4---4h5p4---7--5--4h5p4---4h5p4---|
-------7-7-----------7-------7-5h7-------7-------7-------------7-------7-|
-------------------------------------------------------------------------|
-------------------------------------------------------------------------|
-------------------------------------------------------------------------|
-------------------------------------------------------------------------|

-----4h5p4 ---4h5p4---------------------------------------------------------|
-5h7-------7-------7-5h7----------------------------------------------------|
----------------------------------------------------------------------------|
----------------------------------------------------------------------------|
----------------------------------------------------------------------------|
----------------------------------------------------------------------------|
Tap to rate this tab
 
# A B C D E F G H I J K L M N O P Q R S T U V W X Y Z