Song name
# A B C D E F G H I J K L M N O P Q R S T U V W X Y Z

Rebelution - Outta Control tab

-------------------------------------------------------------------------------
			     Outta control- Rebelution
-------------------------------------------------------------------------------
Tabbed by: Brian and Nathan Zucker
Email:bnzucker@Comcast.net, natezucker@comcast.net

Tuning: Normal

     F#m      C#m Cm   Bm      C#m     
e|---2-2-2-2--4-4-3-3-2-2-2-2--4-4-4-4---------------------------------------|
B|---2-2-2-2--5-5-4-4-3-3-3-3--5-5-5-5---------------------------------------|
G|---2-2-2-2--6-6-5-5-4-4-4-4--6-6-6-6---------------------------------------|
D|---4-4-4-4--6-6-5-5-4-4-4-4--6-6-6-6---------------------------------------|
A|---4-4-4-4--4-4-3-3-2-2-2-2--4-4-4-4---------------------------------------|
E|---2-2-2-2--x-x-x-x-x-x-x-x--x-x-x-x---------------------------------------|

e|---4h5p4-----4h5p4------------4h5p4-----4h5p4-------7-5--------------------|
B|---------7----------7---5h7---------7---------7---5------------------------|
G|---------------------------------------------------------------------------|
D|---------------------------------------------------------------------------|
A|---------------------------------------------------------------------------|
E|---------------------------------------------------------------------------|
         F#m                Bm        C#m
e|----2----2----2----2----2----2----4----4-----------------------------------|
B|----2----2----2----2----3----3----5----5-----------------------------------|
G|----2----2----4----2----4----4----6----6-----------------------------------|
D|----4----4----4----4----4----4----6----6-----------------------------------|
A|----4----4----4----4----2----3----4----4-----------------------------------|
E|----2----2----2----2----x----x----x----x-----------------------------------|

e|----2------2-2-2---------2------2-2-2--------------------------------------|
B|----2------3-3-3---------2------3-3-3--------------------------------------|
G|----2------4-4-4---------2------4-4-4--------------------------------------|
D|----4------4-4-4---------4------4-4-4--------------------------------------|
A|----4------2-2-2---------4------2-2-2--------------------------------------|
E|----2------x-x-x---------2------x-x-x--------------------------------------|

e|----2-2-2-2------2-2-2-2------2-2-2-2------2-2-2-2-------------------------|
B|----2-2-2-2------3-3-3-3------2-2-2-2------3-3-3-3-------------------------|
G|----2-2-2-2------4-4-4-4------2-2-2-2------4-4-4-4-------------------------|
D|----4-4-4-4------4-4-4-4------4-4-4-4------4-4-4-4-------------------------|
A|----4-4-4-4------2-2-2-2------4-4-4-4------2-2-2-2-------------------------|
E|----2-2-2-2------x-x-x-x------2-2-2-2------x-x-x-x-------------------------|

Thats all we got so far anyone got the solo?

Email us if you have any questions. 


************************************

| /   slide up
| \   slide down
| h   hammer-on
| p   pull-off
| ~   vibrato
| +   harmonic
| x   Mute note
| b   Bend
| pb  Pre-bend
| br  Bend release
| pbr Pre-bend release
| brb Bend release bend

************************************

Tap to rate this tab
 
# A B C D E F G H I J K L M N O P Q R S T U V W X Y Z