Song name
# A B C D E F G H I J K L M N O P Q R S T U V W X Y Z

Rebelution - Good Vibes Acoustic tab

e|---------------------------------------------------------------------------|
B|---9------------10---10-------9------------10------10/12-------------------|
G|---9------------11---11-------9------------11------11/13-------------------|
D|---9------------11---11-------9------------11------------------------------|
A|-7-----------9--------------7-----------9----------------------------------|
E|------9-7-9----------------------9-7-9-------------------------------------|

e|---------------------------------------------------------------------------|
B|---9------------10---10-------9--------------------2-----------------------|
G|---9------------11---11-------9------------------2-------------------------|
D|---9------------11---11-------9----------------4---------------------------|
A|-7-----------9--------------7----------------4-----------------------------|
E|------9-7-9----------------------9-7-9-----2-------------------------------|

Once and awhile this part ends with a down strum on this chord

e|--------------------------12-----------------------------------------------|
B|---9------------10------10-------------------------------------------------|
G|---9------------11-----9---------------------------------------------------|
D|---9------------11---11----------------------------------------------------|
A|-7-----------9------9------------------------------------------------------|
E|------9-7-9----------------------------------------------------------------|

On this part I just strum these chords, try listening to the song to get the tempo

e|0----------2---------------------------------------------------------------|
B|2----------2---------------------------------------------------------------|
G|2----------2---------------------------------------------------------------|
D|1----------4---------------------------------------------------------------|
A|0----------4---------------------------------------------------------------|
E|0----------2---------------------------------------------------------------|
Tap to rate this tab
# A B C D E F G H I J K L M N O P Q R S T U V W X Y Z