Song name
# A B C D E F G H I J K L M N O P Q R S T U V W X Y Z

Rebelution - Lady In White tab

-----------------------------------------------------------------
Lady in White - Rebelution
-----------------------------------------------------------------
Tabbed by: Brian Zucker
Email: bnzucker@comcast.net
Tuning: Standard
guitar 1
e|---------------------------------------------------------------|
B|-----3---4---6---4---6---4---3------3---4---6---1---3---4---3--|
G|-0-----0---0---0---0---0---0----0-----0---0---0---0---0---0----|
D|---------------------------------------------------------------|
A|---------------------------------------------------------------|
E|---------------------------------------------------------------|x4

guitar 2 (start after guitar 1 does x2)

e|---------------------------------------------------------------|
B|---------------------------------------------------------------|
G|-----------------------------------------------3---5---6---5---|
D|-5-------------------------------------------------------------|
A|-5-------------------------------------------------------------|
E|-3-------------------------------------------------------------|x2

guitar 1

e|---------------------------------------------------------------|
B|------------------6--6--6h8------------------------------------|
G|--------3---7--------------------------------------------------|
D|----5----------------------------------------------------------|
A|---------------------------------------------------------------|
E|---------------------------------------------------------------|x4

guitar 1
e|---------------------------------------------------------------|
B|-----3---4---6---4---6---4---3------3---4---6---1---3---4---3--|
G|-0-----0---0---0---0---0---0----0-----0---0---0---0---0---0----|
D|---------------------------------------------------------------|
A|---------------------------------------------------------------|
E|---------------------------------------------------------------|x8

guitar 2 (start after guitar 1 does x2)
    Gm
e|---3-----------------------------------------------------------|
B|---3-----------------------------------------------------------|
G|---3-----------------------------------------------------------|
D|---5----(let ring)---------------------------------------------|
A|---5-----------------------------------------------------------|
E|---3-----------------------------------------------------------|x6

guitar 1

e|---------------------------------------------------------------|
B|------------------6--6--6h8------------------------------------|
G|--------3---7--------------------------------------------------|
D|----5----------------------------------------------------------|
A|---------------------------------------------------------------|
E|---------------------------------------------------------------|x4

keyboard part

e|----10-10-10-8---10-8-6-5-3---6-6-6-5---6-8-6-5-6--------------|
B|--8------------------------------------------------------------|
G|---------------------------------------------------------------|
D|---------------------------------------------------------------|
A|---------------------------------------------------------------|
E|---------------------------------------------------------------|x3

keyboard part (cont).

e|----10-10-10-8---10-8-6-5-3---6-6-6-5---1-3--------------------|
B|--8------------------------------------------------------------|
G|---------------------------------------------------------------|
D|---------------------------------------------------------------|
A|---------------------------------------------------------------|
E|---------------------------------------------------------------|x3

guitar 1
    Gm      Cm  Dm
e|---3---3---3---5-----------------------------------------------|
B|---3---3---4---6-----------------------------------------------|
G|---3---3---5---7-----------------------------------------------|
D|---5---5---5---7-----------------------------------------------|
A|---5---5---3---5-----------------------------------------------|
E|---3---3---x---x-----------------------------------------------|x8

guitar 2 (start after guitar 1 does x4)

e|---------------------------------------------------------------|
B|-----3---4---6---4---6---4---3------3---4---6---1---3---4---3--|
G|-0-----0---0---0---0---0---0----0-----0---0---0---0---0---0----|
D|---------------------------------------------------------------|
A|---------------------------------------------------------------|
E|---------------------------------------------------------------|x6

guitar 1

e|--6-----5-----3------------------------------------------------|
B|--6-----5-----3------------------------------------------------|
G|--7-----5-----3------------------------------------------------|
D|--8-----7-----5------------------------------------------------|
A|--8-----7-----5------------------------------------------------|
E|--6-----5-----3------------------------------------------------|x2

guitar 1 (cont).

e|--6-----5------------------------------------------------------|
B|--6-----5------------------------------------------------------|
G|--7-----5--(let ring)------------------------------------------|
D|--8-----7------------------------------------------------------|
A|--8-----7------------------------------------------------------|
E|--6-----5------------------------------------------------------|

guitar 1

e|---------------------------------------------------------------|
B|---------------------------------------------------------------|
G|-0-7--0-5--0-3--0-2---0----------------------------------------|
D|---------------------0-----------------------------------------|
A|---------------------------------------------------------------|
E|---------------------------------------------------------------|x7

guitar 1

e|---------------------------------------------------------------|
B|---------------------------------------------------------------|
G|---------------------------------------------------------------|
D|--5-5--------5-5-----------------------------------------------|
A|--5-5--------5-5-----------------------------------------------|
E|--3-3--------3-3-----------------------------------------------|


| /  slide up
| \  slide down
| h  hammer-on
| p  pull-off
| ~  vibrato
| +  harmonic
| x  Mute note
Tap to rate this tab
# A B C D E F G H I J K L M N O P Q R S T U V W X Y Z