Song name
# A B C D E F G H I J K L M N O P Q R S T U V W X Y Z

Rebelution - Nightcrawler tab

intro
e)------------------------------------------|
b)---------------0----------------------5---|
g)-----------5----------------------4-------|
d)-------2----------------------2-----------|
a)---0----------------------0---------------|
E)------------------------------------------|

rest of song
e)---5-5---5-5---|
b)---5-5---6-6---|
g)---5-5---7-7---|
d)---7-7---7-7---|
a)---7-7---5-5---|
E)---5-5---------|


organ solo
e)------------------------------------|
b)---10-------------------------------|
g)--------9--10--7--9---7-777---------|
d)-----------------------------10-7---|
a)------------------------------------|
E)------------------------------------|

this is as close as I got. tell me how accurate it sounds
Tap to rate this tab
 
# A B C D E F G H I J K L M N O P Q R S T U V W X Y Z