Song name
# A B C D E F G H I J K L M N O P Q R S T U V W X Y Z

Rebelution - Feeling Alright Acoustic tab

This is my first tab so any feedback will help.
I know it's not 100% right but it's pretty close.



-----------------------0h2p0---------------2--5--3---------------|
--------0--1--0------3-------3-------------3------------------0--|
---0h2------------0~~~~~-------0-----------2-------------0h2-----|
----------------------------------------4------------------------|
-----------0--------------------------2--------------------------|
-0------------3----------------------------------------0---------|


-----------------------------------------------------------------|
-1--0-------3------------------0h2p0--------8--10--12--13--------|
------------2--0------------------------------------------0------|
--------0---------4--0-------4-----------------------------------|
-0----------------------2-------------------7---9--10--12---12---|
----3-----------------------------------0------------------------|


-----------------------------------------------------------------|
-15----12------13-----------------7----------------8-------------|
----0-----0-------0----H7-----------7---7------------7-----------|
-----------------------H7-------------7----------9-----9---------|
-------10---10------------------9--------------7-----------------|
------------------------------7----------------------------------|


-----------------------------------------------------------------|
--------5--------5--------------7-------------------7-----8------|
--------5--------5----------------7---7---------7-----7----------|
--------5--------5---------5--------7---------7---7-----7--------|
-----7---------5-------3s5---5-----------------------------------|
---5---------3------------------------------7--------------------|


-------------------------------------------------------0h2p0------|
-----------8--10--12--13-----13-----12-----12--------3-------3----|
-------------------------0------0------0------0----------------0--|
----9--------------------------------------------0~~~~~-----------|
--7---7----7---9--10--12---12-------10---10-----------------------|
------------------------------------------------------------------|


--------0---------------------------------------------------------|
----------3----------------0-1------1-----0-----0----------3------|
------------0---------0h2-------0-----0------0----0--------2--0---|
-----4--------4---------------------------------------2-----------|
--2-----------------2--------0----0-------------------------------|
------------------0-----------------------3----3------------------|


-------------------------------------------------------------------|
----------------------------8--10--12--13------15-----12------13---|
--------------0h2p0-----------------------0-------0------0-------0-|
--4--0------4------------------------------------------------------|
--------2-------------------7---9--10--12---12--------10---10------|
-----------------------0-------------------------------------------|


-------------0---------------------------------------------------|
---------------3-----------------0--1---0---3----3---------------|
--H7-------------0----------0h2-------------2----2--0------------|
--H7------4--------4-----------------------------------4--0------|
--------2-----------------2---------0------------------------2---|
------------------------0---------------3------------------------|


----------------------|
----------------------|
------0h2p0-----------|
----4-----------------|
----------------------|
---------------0------|
Tap to rate this tab
 
# A B C D E F G H I J K L M N O P Q R S T U V W X Y Z