Song name
# A B C D E F G H I J K L M N O P Q R S T U V W X Y Z

Red Car Wire - Affinity tab

-----------------------------------------------------------------------------
Red Car Wire
Affinity
Tuning: DADGDd

By Michael _(scetils)

Verses

d--0---0----0----0---0---0-----|
D--0---0----0----0---0---0-----|
G--0---0----0----0---0---0-----|
D--0---12---14---5---9---7-----|
A--5---12---14---3---7---5-----|
D--5---X----X------------------|


Chorus

d--0---0----0----0----0----0------|
D--0---0----0----0----0----0------|
G--0---0----0----0----0----0------|
D--0---0----5----12---10---0------|
A--5---2----3----14---12---5------|
D--5---2----------------------5---|


Evan posted this tab up on myspace ages ago and i thought someone would of put it up by 
so i guess i might as well (So pretty much 5 stars)
Tap to rate this tab
 
# A B C D E F G H I J K L M N O P Q R S T U V W X Y Z