Guitaretab - guitar tabs
Song name
# A B C D E F G H I J K L M N O P Q R S T U V W X Y Z

Red Hot Chili Peppers - By The Way tab

E |------------------------------------------------------------------
B |------------------------------------------------------------------
G |------------------------------------------------------------------
D |-10-10-10-10-10-10-10-10-10-10-10-10-10-10-10-10------------------
A |-8--8--8--8--8--8--8--7--7--7--7--7--7--7--7--7--7--7--7--7--7--7-
E |-------------------------------------------------5--5--5--5--5--5-



E |------------------------------------------------------------------
B |------------------------------------------------------------------
G |-------------------------------------------------------9--9--9--9-
D |-------------------------------10-10-10-10-10-10-10-10-10-10-10-10
A |-7--7--7--7--7--7--7--7--7--7--8--8--8--8--8--8--8--8--7--7--7--7-
E |-5--5--5--5--5--5--5--5--5--5-------------------------------------



E |------------------------------------------------------------------
B |------------------------------------------------------------------
G |-9--9--9--9--------------------------------------9--9--7--7-------
D |-10-10-10-10-7--7--7--7--7--7--7--7--7--7--7--7--------------10-10
A |-7--7--7--7--7--7--7--7--7--7--7--7--7--7--7--7--------------8--8-
E |------------------------------------------------------------------



E |------------------------------------------------------------------
B |------------------------------------------------------------------
G |------------------------------------------------------------------
D |-10-10-10-10-10-10-10-10-10-10-10-10-10-10-2--2--2--2--2--2--2--2-
A |-8--8--8--8--8--8--7--7--7--7--7--7--7--7--0--0--0--0--0--0--0--0-
E |------------------------------------------------------------------



E |------------------------------------------------------------------
B |------------------------------------------------------------------
G |-------------------------------------------------9--9--9--9--9--9-
D |-2--2--2--2--2--2--2--2-/10-10-10-10-10-10-10-10-10-10-10-10-10-10
A |-0--0--0--0--0--0--0--0-/8--8--8--8--8--8--8--8--7--7--7--7--7--7-
E |------------------------------------------------------------------



E |------------------------------------------------------------------
B |------------------------------------------------------------------
G |-9--9--9--9--9--9--9--9--9--9--9--9--9--9--9--9--9--9-------------
D |-10-10-7--7--7--7--7--7--7--7--7--7--7--7--7--7--7--7-------------
A |-7--7--7--7--7--7--7--7--7--7--7--7--7--7--7--7--7--7-------------
E |------------------------------------------------------------------



E |-x--x--x--x--x--x--x--x--x--x--x--x--x--x--x--x--x--x--x--x--x--x-
B |-x--x--x--x--x--x--x--x--x--x--x--x--x--x--x--x--x--x--x--x--x--x-
G |-x--x--x--x--x--x--x--x--x--x--x--x--x--x--x--x--x--x--x--x--x--x-
D |-x--x--x--x--x--x--x--x--x--x--x--x--x--x--x--x--x--x--x--x--x--x-
A |-x--x--x--x--x--x--x--x--x--x--x--x--x--x--x--x--x--x--x--x--x--x-
E |-x--x--x--x--x--x--x--x--x--x--x--x--x--x--x--x--x--x--x--x--x--x-



E |-x--x--x--x--x--x--x--x--x--x--x--x--x--8--8--8--8--8--8--8-------
B |-x--x--x--x--x--x--x--x--x--x--x--x--x--8--8--8--8--8--8--8-------
G |-x--x--x--x--x--x--x--x--x--x--x--x--x-----------------------7--7-
D |-x--x--x--x--x--x--x--x--x--x--x--x--x-----------------------7--7-
A |-x--x--x--x--x--x--x--x--x--x--x--x--x-----------------------5--5-
E |-x--x--x--x--x--x--x--x--x--x--x--x--x----------------------------



E |-x--x--x--x--x--x--x--x--x--x--x--x--------x--x--x--x--x--x--x--x-
B |-x--x--x--x--x--x--x--x--x--x--x--x--------x--x--x--x--x--x--x--x-
G |-x--x--x--x--x--x--x--x--x--x--x--x--7--7--x--x--x--x--x--x--x--x-
D |-x--x--x--x--x--x--x--x--x--x--x--x--7--7--x--x--x--x--x--x--x--x-
A |-x--x--x--x--x--x--x--x--x--x--x--x--5--5--x--x--x--x--x--x--x--x-
E |-x--x--x--x--x--x--x--x--x--x--x--x--------x--x--x--x--x--x--x--x-



E |-x--x--x--x--------x--x--x--x--x--x--x--x--x--x--x--------x--x--x-
B |-x--x--x--x--------x--x--x--x--x--x--x--x--x--x--x--------x--x--x-
G |-x--x--x--x--7--7--x--x--x--x--x--x--x--x--x--x--x--7--7--x--x--x-
D |-x--x--x--x--7--7--x--x--x--x--x--x--x--x--x--x--x--7--7--x--x--x-
A |-x--x--x--x--5--5--x--x--x--x--x--x--x--x--x--x--x--5--5--x--x--x-
E |-x--x--x--x--------x--x--x--x--x--x--x--x--x--x--x--------x--x--x-



E |-8--8--8--8--8--8--8--------x--x--x--x--x--x--x--x--x--x--x--x----
B |-8--8--8--8--8--8--8--------x--x--x--x--x--x--x--x--x--x--x--x----
G |----------------------7--7--x--x--x--x--x--x--x--x--x--x--x--x--7-
D |----------------------7--7--x--x--x--x--x--x--x--x--x--x--x--x--7-
A |----------------------5--5--x--x--x--x--x--x--x--x--x--x--x--x--5-
E |----------------------------x--x--x--x--x--x--x--x--x--x--x--x----



E |----x--x--x--x--x--x--x--x--x--x--x--x--------x--x--x--x--x--x--x-
B |----x--x--x--x--x--x--x--x--x--x--x--x--------x--x--x--x--x--x--x-
G |-7--x--x--x--x--x--x--x--x--x--x--x--x--7--7--x--x--x--x--x--x--x-
D |-7--x--x--x--x--x--x--x--x--x--x--x--x--7--7--x--x--x--x--x--x--x-
A |-5--x--x--x--x--x--x--x--x--x--x--x--x--5--5--x--x--x--x--x--x--x-
E |----x--x--x--x--x--x--x--x--x--x--x--x--------x--x--x--x--x--x--x-



E |-x--x--x--x-------------------------------------------------------
B |-x--x--x--x-------------------------------------------------------
G |-x--x--x--x--7--7--7--7--7--7--7--7--7--7--7--7-------------------
D |-x--x--x--x--7--7--7--7--7--7--7--7--7--7--7--7-------------------
A |-x--x--x--x--5--5--5--5--5--5--5--5--5--5--5--5-------------------
E |-x--x--x--x-------------------------------------------------------



E |-1--1--1--1--1--1--1--1--------------------------5--5--5--5--5--5-
B |-1--1--1--1--1--1--1--1--------------------------6--6--6--6--6--6-
G |-2--2--2--2--2--2--2--2--5--5--5--5--5--5--5--5--7--7--7--7--7--7-
D |-3--3--3--3--3--3--3--3--5--5--5--5--5--5--5--5--7--7--7--7--7--7-
A |-3--3--3--3--3--3--3--3--3--3--3--3--3--3--3--3--5--5--5--5--5--5-
E |-1--1--1--1--1--1--1--1-------------------------------------------



E |-5--5--5--5--5--5--5--5--5--5--1--1--1--1--1--1--1--1-------------
B |-6--6--6--6--6--6--6--6--6--6--1--1--1--1--1--1--1--1-------------
G |-7--7--7--7--7--7--7--7--7--7--2--2--2--2--2--2--2--2--5--5--5--5-
D |-7--7--7--7--7--7--7--7--7--7--3--3--3--3--3--3--3--3--5--5--5--5-
A |-5--5--5--5--5--5--5--5--5--5--3--3--3--3--3--3--3--3--3--3--3--3-
E |-------------------------------1--1--1--1--1--1--1--1-------------



E |-------------5--5--5--5--5--5--5--5--6--6--6--6--6--6--6--6-------
B |-------------5--5--5--5--5--5--5--5--6--6--6--6--6--6--6--6-------
G |-5--5--5--5--5--5--5--5--5--5--5--5--7--7--7--7--7--7--7--7-------
D |-5--5--5--5--7--7--7--7--7--7--7--7--8--8--8--8--8--8--8--8-------
A |-3--3--3--3--7--7--7--7--7--7--7--7--8--8--8--8--8--8--8--8-------
E |-------------5--5--5--5--5--5--5--5--6--6--6--6--6--6--6--6-------



E |------------------------------------------------------------------
B |------------------------------------------------------------------
G |------------------------------------------------------------------
D |------------------------------------------------------------------
A |------------------------------------------------------------------
E |b10b10b10b10b10b10b10b10b10b10b10b10b10b10b10b10------------------



E |-x--x--x--x--x--x--x--x--x--x--x--x--x--x--x--x--x--x--x--x--x--x-
B |-x--x--x--x--x--x--x--x--x--x--x--x--x--x--x--x--x--x--x--x--x--x-
G |-x--x--x--x--x--x--x--x--x--x--x--x--x--x--x--x--x--x--x--x--x--x-
D |-x--x--x--x--x--x--x--x--x--x--x--x--x--x--x--x--x--x--x--x--x--x-
A |-x--x--x--x--x--x--x--x--x--x--x--x--x--x--x--x--x--x--x--x--x--x-
E |-x--x--x--x--x--x--x--x--x--x--x--x--x--x--x--x--x--x--x--x--x--x-



E |-x--x--x--x--x--x--x--x--x--x--x--x--x--8--8--8--8--8--8--8-------
B |-x--x--x--x--x--x--x--x--x--x--x--x--x--8--8--8--8--8--8--8-------
G |-x--x--x--x--x--x--x--x--x--x--x--x--x-----------------------7--7-
D |-x--x--x--x--x--x--x--x--x--x--x--x--x-----------------------7--7-
A |-x--x--x--x--x--x--x--x--x--x--x--x--x-----------------------5--5-
E |-x--x--x--x--x--x--x--x--x--x--x--x--x----------------------------



E |-x--x--x--x--x--x--x--x--x--x--x--x--------x--x--x--x--x--x--x--x-
B |-x--x--x--x--x--x--x--x--x--x--x--x--------x--x--x--x--x--x--x--x-
G |-x--x--x--x--x--x--x--x--x--x--x--x--7--7--x--x--x--x--x--x--x--x-
D |-x--x--x--x--x--x--x--x--x--x--x--x--7--7--x--x--x--x--x--x--x--x-
A |-x--x--x--x--x--x--x--x--x--x--x--x--5--5--x--x--x--x--x--x--x--x-
E |-x--x--x--x--x--x--x--x--x--x--x--x--------x--x--x--x--x--x--x--x-



E |-x--x--x--x--------x--x--x--x--x--x--x--x--x--x--x--------x--x--x-
B |-x--x--x--x--------x--x--x--x--x--x--x--x--x--x--x--------x--x--x-
G |-x--x--x--x--7--7--x--x--x--x--x--x--x--x--x--x--x--7--7--x--x--x-
D |-x--x--x--x--7--7--x--x--x--x--x--x--x--x--x--x--x--7--7--x--x--x-
A |-x--x--x--x--5--5--x--x--x--x--x--x--x--x--x--x--x--5--5--x--x--x-
E |-x--x--x--x--------x--x--x--x--x--x--x--x--x--x--x--------x--x--x-



E |-8--8--8--8--8--8--8--------x--x--x--x--x--x--x--x--x--x--x--x----
B |-8--8--8--8--8--8--8--------x--x--x--x--x--x--x--x--x--x--x--x----
G |----------------------7--7--x--x--x--x--x--x--x--x--x--x--x--x--7-
D |----------------------7--7--x--x--x--x--x--x--x--x--x--x--x--x--7-
A |----------------------5--5--x--x--x--x--x--x--x--x--x--x--x--x--5-
E |----------------------------x--x--x--x--x--x--x--x--x--x--x--x----



E |----x--x--x--x--x--x--x--x--x--x--x--x--------x--x--x--x--x--x--x-
B |----x--x--x--x--x--x--x--x--x--x--x--x--------x--x--x--x--x--x--x-
G |-7--x--x--x--x--x--x--x--x--x--x--x--x--7--7--x--x--x--x--x--x--x-
D |-7--x--x--x--x--x--x--x--x--x--x--x--x--7--7--x--x--x--x--x--x--x-
A |-5--x--x--x--x--x--x--x--x--x--x--x--x--5--5--x--x--x--x--x--x--x-
E |----x--x--x--x--x--x--x--x--x--x--x--x--------x--x--x--x--x--x--x-



E |-x--x--x--x-------------------------------------------------------
B |-x--x--x--x-------------------------------------------------------
G |-x--x--x--x--7--7--7--7--7--7--7--7--7--7--7--7-------------------
D |-x--x--x--x--7--7--7--7--7--7--7--7--7--7--7--7-------------------
A |-x--x--x--x--5--5--5--5--5--5--5--5--5--5--5--5-------------------
E |-x--x--x--x-------------------------------------------------------



E |------------------------------------------------------------------
B |------------------------------------------------------------------
G |------------------------------------------------------------------
D |-10-10-10-10-10-10-10-10-10-10-10-10-10-10-10-10------------------
A |-8--8--8--8--8--8--8--7--7--7--7--7--7--7--7--7--7--7--7--7--7--7-
E |-------------------------------------------------5--5--5--5--5--5-



E |------------------------------------------------------------------
B |------------------------------------------------------------------
G |-------------------------------------------------------9--9--9--9-
D |-------------------------------10-10-10-10-10-10-10-10-10-10-10-10
A |-7--7--7--7--7--7--7--7--7--7--8--8--8--8--8--8--8--8--7--7--7--7-
E |-5--5--5--5--5--5--5--5--5--5-------------------------------------



E |------------------------------------------------------------------
B |------------------------------------------------------------------
G |-9--9--9--9--------------------------------------9--9--7--7-------
D |-10-10-10-10-7--7--7--7--7--7--7--7--7--7--7--7--------------10-10
A |-7--7--7--7--7--7--7--7--7--7--7--7--7--7--7--7--------------8--8-
E |------------------------------------------------------------------



E |------------------------------------------------------------------
B |------------------------------------------------------------------
G |------------------------------------------------------------------
D |-10-10-10-10-10-10-10-10-10-10-10-10-10-10-2--2--2--2--2--2--2--2-
A |-8--8--8--8--8--8--7--7--7--7--7--7--7--7--0--0--0--0--0--0--0--0-
E |------------------------------------------------------------------



E |------------------------------------------------------------------
B |------------------------------------------------------------------
G |-------------------------------------------------9--9--9--9--9--9-
D |-2--2--2--2--2--2--2--2-/10-10-10-10-10-10-10-10-10-10-10-10-10-10
A |-0--0--0--0--0--0--0--0-/8--8--8--8--8--8--8--8--7--7--7--7--7--7-
E |------------------------------------------------------------------



E |------------------------------------------------------------------
B |------------------------------------------------------------------
G |-9--9--9--9--9--9--9--9--9--9--9--9--9--9--9--9--9--9-------------
D |-10-10-7--7--7--7--7--7--7--7--7--7--7--7--7--7--7--7-------------
A |-7--7--7--7--7--7--7--7--7--7--7--7--7--7--7--7--7--7-------------
E |------------------------------------------------------------------



E |------------------------------------------------------------------
B |------------------------------------------------------------------
G |-7--7--------------7--7--------------7--7--------------7--7-------
D |-7--7--------------7--7--------------7--7--------------7--7-------
A |-5--5--------------5--5--------------5--5--------------5--5-------
E |------------------------------------------------------------------



E |-8--8--8--8--8--8--8--------x--x--x--x--x--x--x--x--x--x--x--x----
B |-8--8--8--8--8--8--8--------x--x--x--x--x--x--x--x--x--x--x--x----
G |----------------------7--7--x--x--x--x--x--x--x--x--x--x--x--x--7-
D |----------------------7--7--x--x--x--x--x--x--x--x--x--x--x--x--7-
A |----------------------5--5--x--x--x--x--x--x--x--x--x--x--x--x--5-
E |----------------------------x--x--x--x--x--x--x--x--x--x--x--x----



E |----x--x--x--x--x--x--x--x--x--x--x--x--------x--x--x--x--x--x--x-
B |----x--x--x--x--x--x--x--x--x--x--x--x--------x--x--x--x--x--x--x-
G |-7--x--x--x--x--x--x--x--x--x--x--x--x--7--7--x--x--x--x--x--x--x-
D |-7--x--x--x--x--x--x--x--x--x--x--x--x--7--7--x--x--x--x--x--x--x-
A |-5--x--x--x--x--x--x--x--x--x--x--x--x--5--5--x--x--x--x--x--x--x-
E |----x--x--x--x--x--x--x--x--x--x--x--x--------x--x--x--x--x--x--x-



E |-x--x--x--x--------x--x--x--8--8--8--8--8--8--8--------x--x--x--x-
B |-x--x--x--x--------x--x--x--8--8--8--8--8--8--8--------x--x--x--x-
G |-x--x--x--x--7--7--x--x--x-----------------------7--7--x--x--x--x-
D |-x--x--x--x--7--7--x--x--x-----------------------7--7--x--x--x--x-
A |-x--x--x--x--5--5--x--x--x-----------------------5--5--x--x--x--x-
E |-x--x--x--x--------x--x--x-----------------------------x--x--x--x-



E |-x--x--x--x--x--x--x--x--------x--x--x--x--x--x--x--x--x--x--x--x-
B |-x--x--x--x--x--x--x--x--------x--x--x--x--x--x--x--x--x--x--x--x-
G |-x--x--x--x--x--x--x--x--7--7--x--x--x--x--x--x--x--x--x--x--x--x-
D |-x--x--x--x--x--x--x--x--7--7--x--x--x--x--x--x--x--x--x--x--x--x-
A |-x--x--x--x--x--x--x--x--5--5--x--x--x--x--x--x--x--x--x--x--x--x-
E |-x--x--x--x--x--x--x--x--------x--x--x--x--x--x--x--x--x--x--x--x-



E |-------x--x--x--x--x--x--x--x--x--x--x----------------------------
B |-------x--x--x--x--x--x--x--x--x--x--x----------------------------
G |-7--7--x--x--x--x--x--x--x--x--x--x--x--7--7--7--7--7--7--7--7--7-
D |-7--7--x--x--x--x--x--x--x--x--x--x--x--7--7--7--7--7--7--7--7--7-
A |-5--5--x--x--x--x--x--x--x--x--x--x--x--5--5--5--5--5--5--5--5--5-
E |-------x--x--x--x--x--x--x--x--x--x--x----------------------------



E |------------------------------------------------------------------
B |------------------------------------------------------------------
G |-7--7--7----------------------------------------------------------
D |-7--7--7----------------------------------------------------------
A |-5--5--5----------------------------------------------------------
E |------------------------------------------------------------------



E |-1--1--1--1--1--1--1--1--------------------------5--5--5--5--5--5-
B |-1--1--1--1--1--1--1--1--------------------------6--6--6--6--6--6-
G |-2--2--2--2--2--2--2--2--5--5--5--5--5--5--5--5--7--7--7--7--7--7-
D |-3--3--3--3--3--3--3--3--5--5--5--5--5--5--5--5--7--7--7--7--7--7-
A |-3--3--3--3--3--3--3--3--3--3--3--3--3--3--3--3--5--5--5--5--5--5-
E |-1--1--1--1--1--1--1--1-------------------------------------------



E |-5--5--5--5--5--5--5--5--5--5--1--1--1--1--1--1--1--1-------------
B |-6--6--6--6--6--6--6--6--6--6--1--1--1--1--1--1--1--1-------------
G |-7--7--7--7--7--7--7--7--7--7--2--2--2--2--2--2--2--2--5--5--5--5-
D |-7--7--7--7--7--7--7--7--7--7--3--3--3--3--3--3--3--3--5--5--5--5-
A |-5--5--5--5--5--5--5--5--5--5--3--3--3--3--3--3--3--3--3--3--3--3-
E |-------------------------------1--1--1--1--1--1--1--1-------------



E |-------------5--5--5--5--5--5--5--5--6--6--6--6--6--6--6--6--1--1-
B |-------------5--5--5--5--5--5--5--5--6--6--6--6--6--6--6--6--1--1-
G |-5--5--5--5--5--5--5--5--5--5--5--5--7--7--7--7--7--7--7--7--2--2-
D |-5--5--5--5--7--7--7--7--7--7--7--7--8--8--8--8--8--8--8--8--3--3-
A |-3--3--3--3--7--7--7--7--7--7--7--7--8--8--8--8--8--8--8--8--3--3-
E |-------------5--5--5--5--5--5--5--5--6--6--6--6--6--6--6--6--1--1-



E |-1--1--1--1--1--1--------------------------5--5--5--5--5--5--5--5-
B |-1--1--1--1--1--1--------------------------6--6--6--6--6--6--6--6-
G |-2--2--2--2--2--2--5--5--5--5--5--5--5--5--7--7--7--7--7--7--7--7-
D |-3--3--3--3--3--3--5--5--5--5--5--5--5--5--7--7--7--7--7--7--7--7-
A |-3--3--3--3--3--3--3--3--3--3--3--3--3--3--5--5--5--5--5--5--5--5-
E |-1--1--1--1--1--1-------------------------------------------------



E |-5--5--5--5--5--5--5--5--1--1--1--1--1--1--1--1-------------------
B |-6--6--6--6--6--6--6--6--1--1--1--1--1--1--1--1-------------------
G |-7--7--7--7--7--7--7--7--2--2--2--2--2--2--2--2--5--5--5--5--5--5-
D |-7--7--7--7--7--7--7--7--3--3--3--3--3--3--3--3--5--5--5--5--5--5-
A |-5--5--5--5--5--5--5--5--3--3--3--3--3--3--3--3--3--3--3--3--3--3-
E |-------------------------1--1--1--1--1--1--1--1-------------------



E |-------5--5--5--5--5--5--5--5--6--6--6--6--6--6--6--6--1--1--1--1-
B |-------5--5--5--5--5--5--5--5--6--6--6--6--6--6--6--6--1--1--1--1-
G |-5--5--5--5--5--5--5--5--5--5--7--7--7--7--7--7--7--7--2--2--2--2-
D |-5--5--7--7--7--7--7--7--7--7--8--8--8--8--8--8--8--8--3--3--3--3-
A |-3--3--7--7--7--7--7--7--7--7--8--8--8--8--8--8--8--8--3--3--3--3-
E |-------5--5--5--5--5--5--5--5--6--6--6--6--6--6--6--6--1--1--1--1-



E |-1--1--1--1--------------------------5--5--5--5--5--5--5--5--5--5-
B |-1--1--1--1--------------------------6--6--6--6--6--6--6--6--6--6-
G |-2--2--2--2--5--5--5--5--5--5--5--5--7--7--7--7--7--7--7--7--7--7-
D |-3--3--3--3--5--5--5--5--5--5--5--5--7--7--7--7--7--7--7--7--7--7-
A |-3--3--3--3--3--3--3--3--3--3--3--3--5--5--5--5--5--5--5--5--5--5-
E |-1--1--1--1-------------------------------------------------------



E |-5--5--5--5--5--5--1--1--1--1--1--1--1--1-------------------------
B |-6--6--6--6--6--6--1--1--1--1--1--1--1--1-------------------------
G |-7--7--7--7--7--7--2--2--2--2--2--2--2--2--5--5--5--5--5--5--5--5-
D |-7--7--7--7--7--7--3--3--3--3--3--3--3--3--5--5--5--5--5--5--5--5-
A |-5--5--5--5--5--5--3--3--3--3--3--3--3--3--3--3--3--3--3--3--3--3-
E |-------------------1--1--1--1--1--1--1--1-------------------------



E |-5--5--5--5--5--5--5--5--6--6--6--6--6--6--6--6-----------5-------
B |-5--5--5--5--5--5--5--5--6--6--6--6--6--6--6--6-----------6-------
G |-5--5--5--5--5--5--5--5--7--7--7--7--7--7--7--7-----------7-------
D |-7--7--7--7--7--7--7--7--8--8--8--8--8--8--8--8-----------7-------
A |-7--7--7--7--7--7--7--7--8--8--8--8--8--8--8--8-----------5-------
E |-5--5--5--5--5--5--5--5--6--6--6--6--6--6--6--6-------------------

[ Tab from: http://www.guitaretab.com/r/red-hot-chili-peppers/23113.html ]
Related for By The Way tab