Guitaretab - guitar tabs
Song name
# A B C D E F G H I J K L M N O P Q R S T U V W X Y Z

Red Hot Chili Peppers - Californication tab

*** Red Hot Chilli Peppers - Californication ***

--- Intro 2X Alone ---
e -----------------------|--------------------|
B ------0-1--------------|--------------------|
G --2--------------------|------0-2-----------|
D ----2------(0)-2-0-----|--------0------0----|
A --0----------------3---|----3------------3--|
E -----------------------|--1-----------------|

--- Intro 2X ---

--- Intro 2X With: ---
Psychic spies from China Try to steal your mind's elation 
Little girls from Sweden Dream of silver screen quotations 

--- Intro B ---
    C		          G	         Dm	       F
e ------------------------------------------1-------------1----
B -----1-----------------------------------3-------------1-----
G ----0----------------------0------------2-------------2------
D ---2----------------------0------------0-------------3-------
A --3----------------------2-----------------------------------
E ------------------------3------------------------------------
    And if you want these kind of dreams It's Californication 

--- Intro 2X ---

--- Intro 2X With: ---
It's the edge of the world And all of western civilization 
The sun may rise in the East At least it settles in the final location 

--- Intro B ---
It's understood that Hollywood sells Californication

--- Chorus B 2X ---

    Am		F
e --0-----------1---
B --1-----------1---
G --2-----------2---
D --2-----------3---
A --0----------(1)--
E -------------(1)--

--- Chorus B With: ---

Pay your surgeon very well To break the spell of aging 
Celebrity skin is this your chin Or is that war your waging 

--- Chorus A ---

Am		   F
     First born unicorn
Am  		    F
     Hard core soft porn 

C            G    Dm     Am
Dream of Californication 

C            G    Dm     Am
Dream of Californication 

--- Intro 2X ---

--- Intro 2X With: ---
Marry me girl be my fairy to the world Be my very own constellation 
A teenage bride with a baby inside Getting high on information

--- Intro B ---
And buy me a star on the boulevard It's Californication

--- Intro 2X ---

--- Intro 2X With: ---
Space may be the final frontier But it's made in a Hollywood basement 
Cobain can you hear the spheres Singing songs off station to station 

--- Intro B ---
And Alderaan's not far away It's Californication 

--- Chorus B 2X ---

--- Chorus B With: ---
Born and raised by those who praise Control of population 
everybody's been there and I don't mean on vacation 

--- Chorus A ---
Am		   F
     First born unicorn
     Hard core soft porn 

C            G    Dm     Am
Dream of Californication 
Dream of Californication 
Dream of Californication 
Dream of Californication 

--- SOLO ---
e-|------9-----------------------9--------------------------------------------| 
B-|-10---------7/9--7-------10---------7b(9)7-------7-7-7h5--------------5----| 
G-|---------------------------------------------------------6--------4-6------| 
D-|---------------------------------------------------------------------------| 
A-|---------------------------------------------------------------------------| 
E-|---------------------------------------------------------------------------| 

e-|------------------------------9----12----14------------9-----12--/16--14---| 
B-|-7b(8)r7--5--------------10------------------------10----------------------| 
G-|-------------6-------------------------------------------------------------| 
D-|---------------------------------------------------------------------------| 
A-|---------------------------------------------------------------------------| 
E-|---------------------------------------------------------------------------| 

e-|-17--16--14--12--14--12-----12--------------------------------12--------12-| 
B-|------------------------14-----14----12/14----12/14----12/14------12/14----| 
G-|---------------------------------------------------------------------------| 
D-|---------------------------------------------------------------------------| 
A-|---------------------------------------------------------------------------| 
E-|---------------------------------------------------------------------------| 

e-|-16-14-12----12------------------12---------------------| 
B-|----------14------14---12--------------15---14----------| 
G-|----------------------------14-------------------14-----| 
D-|-------------------------------------------------/------| 
A-|------------------------------------------------/-------| 
E-|-----------------------------------------------/--------| 
    On this note begin to replay the intro part _/ 


 TAB > --12/14---- = slide                      --14p12---- = pull-off 
       --7b(9)---- = bend whole step            --12h14---- = hammer 
       --7b(8)r7-- = bend half step and release
 
--- Intro 2X ---

--- Intro 2X With: ---
Destruction leads to a very rough road But it also breeds creation 
And earthquakes are to a girl's guitar They're just another good vibration 

--- Intro B ---
And tidal waves couldn't save the world From Californication 

--- Chorus B 2X ---

--- Chorus B With: ---
Pay your surgeon very well To break the spell of aging 
Sicker than the rest There is no test But this is what you're craving 

--- Chorus A ---
Am		   F
     First born unicorn
    Hard core soft porn 

C            G    Dm     Am
Dream of Californication 
Dream of Californication 
Dream of Californication 
Dream of Californication



*** Collecdet and Summarized ***
***       SAMUEL VARGA       ***
***  vsamu@mail.datanet.hu   ***
[ Tab from: http://www.guitaretab.com/r/red-hot-chili-peppers/23584.html ]
Related for Californication tab
Californication chords by Red Hot Chili Peppers