Song name
# A B C D E F G H I J K L M N O P Q R S T U V W X Y Z

Red Hot Chili Peppers - Tear tab

-------------------------------------------------------------------------------
			     Tear solo- RHCP
-------------------------------------------------------------------------------
Tabbed by: liammountford
Email:mountford99@hotmail.co.uk

Tuning:EADGBe

The other tear solos are pretty accurate, but this is an easier way to play it, and the 
Frusciante does.This is also my first tab attempt.

e|-----------------------------------------------------------------------------|
B|-----5--6--8---6--5------5---------------------------------------------------|
G|--5------------------5------------4----5---7--5---4------4-------------------|
D|-----------------------------5-----------------------5-----------------------|
A|-----------------------------------------------------------------------------|
E|-----------------------------------------------------------------------------|

e|---------------------------------------------------------------------------|
B|----------5----------------5-------------5------------------5--------------|
G|------5------7p5--------5----7p5------5------7p5---------5-----------------|
D|---7-----------------7-------------7-----------------7---------------------|
A|---------------------------------------------------------------------------|
E|---------------------------------------------------------------------------|

Play twice, and on the second time round, finish on this:

e|---------------------------------------------------------------------------|
B|---------------------------------------------------------------------------|
G|---5----7----5-------------------------------------------------------------|
D|---7----9----5-------------------------------------------------------------|
A|---------------------------------------------------------------------------|
E|---------------------------------------------------------------------------|
If you have anything to say about this tab bad or good, email me at the address above. Cheers!
Tap to rate this tab
 
# A B C D E F G H I J K L M N O P Q R S T U V W X Y Z