Guitaretab - guitar tabs
Song name
# A B C D E F G H I J K L M N O P Q R S T U V W X Y Z

Red Hot Chilli Peppers - Subterrenean Homesick Blues tab

Subterrenean Homesick Blues from Uplift Mofo Party Plan by Red Hot Chili Peppers

........very easy......

Verse Riff

e|-------------------------------------------15-----------------------------|
B|------12---------------------12h14p12--12--15---12-------14--------12-----|
G|------12---------------------12h14p12--12-------12-------14--------12-----|
D|------12---------------------12h14p12--12-------12-------14--------12-----|
A|--------------------------------------------------------------------------|
E|--------------------------------------------------------------------------|
           ^ ^ ^ ^ ^ ^ ^ ^ ^ ^                                 ^^^^^^  

Chorus
e|---------------------------------------15-----------15---15--15-----------|
B|--------------------------------------------------------------------------|
G|--------------------------------------------------------------------------|
D|--------------------------------------------------------------------------|
A|-------7--------7---7-----------------------------------------------------|
E|-------5--------5---5-----------------------------------------------------|
        Look     out kid...........     it's somethin' that you did 


e|---------------------------|------------------|----------------------11~~--|
B|----11----10----8----------|------------------|----11----10----8--8--------|
G|-----------------8--8~~----|------------------|----------------------------|
D|---------------------------|--10--8----8------|----------------------------|
A|---------------------------|------------------|----------------------------|
E|---------------------------|------------------|----------------------------|
 
e|----8h11p8----8--11p8~~----|---------------------------|--------------------|
B|-----------11--------------|----11----10----8----------|--------------------|
G|---------------------------|-------------------8--8----|--------------------|
D|---------------------------|---------------------------|----8--8----8h10----|
A|---------------------------|---------------------------|--------------------|
E|---------------------------|---------------------------|--------------------|   

e|----------------------11----|---------------------------|
B|----11----10----8--8--------|----11p8-------------------|
G|----------------------------|----------10--8------------|
D|----------------------------|---------------------------|
A|----------------------------|---------------------------|
E|----------------------------|---------------------------|

i think it's correct....see ya :**        Piccione
[ Tab from: http://www.guitaretab.com/r/red-hot-chilli-peppers/23297.html ]
Related for Subterrenean Homesick Blues tab