Guitaretab - guitar tabs
Song name
# A B C D E F G H I J K L M N O P Q R S T U V W X Y Z

Red - Take It All Away tab

Red Take it all away form the album innocence and instinct.
The whole album is in drop Bb but this can be played with  no mistakes in drop D but if
want it in drop Bb just send me an email at hairhockey@hotmail.com also I didnít include
of the unndeeded violin stuff but if you want it send me an email or download the power 
version.  i included some of the violin though.

Gtr I (D A D G B E) - 'Untitled'
Gtr II (D A D G B E) - 'Untitled'
Gtr III (D A D G B E) - 'Untitled'
Gtr IV (E A D G B E) - 'Untitled'
Gtr V (D A D G B E) - 'Untitled'
Gtr VI (D A D G B E) - 'Untitled'
  Q=66
 4/4
  Gtr I
   E  Q    H        +E     E  Q    H        +E
|-----------------------|-----------------------|
|-----------------------|-----------------------|
|-----------------------|-----------------------|
|---------12-------(12)-|---------10-------(10)-|
|-12-13-----------------|-10-12-----------------|
|-----------------------|-----------------------|
|
| Gtr II
|  E  E E  E E E E   E     E  E E  E E E E   E
|-----------------------|-----------------------|
|-----------------------|-----------------------|
|-----------------------|-----------------------|
|-----------------------|-----------------------|
|-----------------------|-----------------------|
|--5--5-5--5-5-5-5---5--|--3--3-3--3-3-3-3---3--|


   E  Q    H        +E     E  Q    Q     Q    +E
|-----------------------|--------------------------|
|-----------------------|--------------------------|
|-----------------------|--------------------------|
|---------12-------(12)-|--------------------------|
|-12-13-----------------|-12-13---13----12---(12)--|
|-----------------------|--------------------------|
|
|  E  E E  E E E E   E     E  E E  E  E  E E   E
|-----------------------|--------------------------|
|-----------------------|--------------------------|
|-----------------------|--------------------------|
|-----------------------|--------------------------|
|-----------------------|--------------------------|
|--1--1-1--1-1-1-1---1--|--8--8-8--8--8--8-8---8---|


    Gtr II
    E E E E E E E E   E E E E E E E E   E E E E E E E E   E E E E E E E E
||------------------|-----------------|-----------------|-------------------||
||o-----------------|-----------------|-----------------|------------------o||
||------------------|-----------------|-----------------|-------------------||
||------------------|-----------------|-----------------|-------------------||
||o-----------------|-----------------|-----------------|------------------o||
||--5-5-5-5-5-5-5-5-|-5-5-5-5-5-5-5-5-|-5-5-5-5-5-5-5-5-|-8-8-8-8-5-5-5-5---||


  Gtr II                  Gtr I
  W          W             E  E  E  E  E  E  E  E    E  E  E  E  E  E  E  E
|----------|----------||--------------------------|--------------------------||
|----------|----------||o-------10-11-------13-10-|-------10-11-13-11-10----o||
|----------|----------||--------------10----------|----------------------12--||
|----------|----------||--10-12----------12-------|-10-12--------------------||
|----------|----------||o-------------------------|-------------------------o||
|-5--------|----------||--------------------------|--------------------------||
|
| Gtr II
| W          W             E  E  E  E  E  E  E  E    E  E  E  E  E  E  E  E
|----------|----------||--------------------------|--------------------------||
|----------|----------||o-------------------------|-------------------------o||
|----------|----------||--------------------------|--------------------------||
|----------|----------||--------------------------|--------------------------||
|----------|----------||o-------------------------|-------------------------o||
|----------|----------||---5--5--5--5--8--8--8--8-|--3--3--3--3--5--5--5--5--||

    Gtr I
     E  E  E  E  E  E  E  E    E  E  E  E  E  E  E  E
||--------------------------|--------------------------||
||o-------10-11-------13-10-|-------10-11-13-11-10----o||
||--------------10----------|----------------------12--||
||--10-12----------12-------|-10-12--------------------||
||o-------------------------|-------------------------o||
||--------------------------|--------------------------||
|
|    E  E  E  E  E  E  E  E    E  E  E  E  E  E  E  E
||--------------------------|--------------------------||
||o-------------------------|-------------------------o||
||--------------------------|--------------------------||
||--------------------------|--------------------------||
||o-------------------------|-------------------------o||
||---5--5--5--5--8--8--8--8-|--3--3--3--3--5--5--5--5--||


   E  Q    H        +E     E  Q    H        +E
|-----------------------|-----------------------|
|-----------------------|-----------------------|
|-----------------------|-----------------------|
|---------12-------(12)-|---------10-------(10)-|
|-12-13-----------------|-10-12-----------------|
|-----------------------|-----------------------|
|
|  E  E E  E E E E   E     E  E E  E E E E   E
|-----------------------|-----------------------|
|-----------------------|-----------------------|
|-----------------------|-----------------------|
|-----------------------|-----------------------|
|-----------------------|-----------------------|
|--5--5-5--5-5-5-5---5--|--3--3-3--3-3-3-3---3--|


   E  Q    H        +E     E  Q    Q    Q    +E
|-----------------------|------------------------|
|-----------------------|------------------------|
|-----------------------|------------------------|
|---------12-------(12)-|------------------------|
|-12-13-----------------|-12-13---13---12---(12)-|
|-----------------------|------------------------|
|
|  E  E E  E E E E   E     E  E E  E E  E E   E
|-----------------------|------------------------|
|-----------------------|------------------------|
|-----------------------|------------------------|
|-----------------------|------------------------|
|-----------------------|------------------------|
|--1--1-1--1-1-1-1---1--|--8--8-8--8-8--8-8---8--|


  Gtr II
  E E E E E E E E   E E E E E E E E   E E E E E E E E   E E E E E E E E
|-----------------|-----------------|-----------------|-----------------|
|-----------------|-----------------|-----------------|-----------------|
|-----------------|-----------------|-----------------|-----------------|
|-----------------|-----------------|-----------------|-----------------|
|-----------------|-----------------|-----------------|-----------------|
|-5-5-5-5-5-5-5-5-|-5-5-5-5-5-5-5-5-|-5-5-5-5-5-5-5-5-|-8-8-8-8-5-5-5-5-|


  E E  E  E E E E E   E E E E E E E E   E E E E E E E E   E E E E  E E E E
|-------------------|-----------------|-----------------|------------------|
|-------------------|-----------------|-----------------|------------------|
|-------------------|-----------------|-----------------|------------------|
|-------------------|-----------------|-----------------|------------------|
|-------------------|-----------------|-----------------|------------------|
|-5-5--5--5-5-5-5-5-|-5-5-5-5-5-5-5-5-|-5-5-5-5-5-5-5-5-|-8-8-8-8--5-5-5-5-|


  Gtr I
    W           W             E  E  E  E  E  E   E   E
|-------------|----------||----------------------------|
|-------------|----------||o-------10-11--------13--10-|
|-------------|----------||--------------10------------|
|-------------|----------||--10-12----------12---------|
|-------------|----------||o---------------------------|
|-------------|----------||----------------------------|

| Gtr II
|   W           W             E  E  E  E  E  E   E   E
|-------------|----------||----------------------------|
|-------------|----------||o---------------------------|
|-------------|----------||----------------------------|
|-------------|----------||----------------------------|
|-------------|----------||o---------------------------|
|---5---------|----------||---5--5--5--5--8--8---8---8-|


    E   E  E  E  E  E  E  E  4x
|----------------------------||
|---------10-11-13-11-10----o||
|------------------------12--||
|--10--12--------------------||
|---------------------------o||
|----------------------------||

|   E   E  E  E  E  E  E  E  4x
|----------------------------||
|---------------------------o||
|----------------------------||
|----------------------------||
|---------------------------o||
|---3---3--3--3--5--5--5--5--||


  Gtr IV
   E  E  E  E  E  E  E  E    E  E  E  E  E  E  E  E
|-------------------------|-------------------------|
|----15----15----15----15-|----15----15----15----15-|
|----15----15----15----15-|----14----14----14----14-|
|-12----12----12----12----|-------------------------|
|-------------------------|-12----12----12----12----|
|-------------------------|-------------------------|


   E  E  E  E  E  E  E  E    E  E  E  E  E  E  E  E
|-------------------------|-------------------------|
|----13----13----13----13-|----11----11----11----11-|
|----14----14----14----14-|----12----12----12----12-|
|-------------------------|-------------------------|
|-12----12----12----12----|-10----10----10----10----|
|-------------------------|-------------------------|


  Q=106
  Gtr III
  W          W          H         H          H         H
|----------|----------|--------------------|--------------------|
|----------|----------|--------------------|--------------------|
|----------|----------|--------------------|--------------------|
|----------|----------|--------------------|--------------------|
|----------|----------|-5---------6--------|-6---------5--------|
|----------|----------|--------------------|--------------------|
|
| Gtr IV
| W          W          Q   E  E  E Q  +E    Q   E  E  E Q  +E
|----------|----------|----10-11-10--------|----10-11-10--------|
|----------|----------|-------------8--(8)-|-------------8--(8)-|
|----------|----------|--------------------|--------------------|
|----------|----------|--------------------|--------------------|
|----------|----------|--------------------|--------------------|
|----------|----------|--------------------|--------------------|


  H        H            H       H
|---------------------|------------------|
|---------------------|------------------|
|---------------------|------------------|
|---------------------|-8-------7--------|
|-5--------6----------|-6-------5--------|
|---------------------|------------------|
|
| Q  E  E  E  Q   +E    Q   Q   E  E E E
|----8-10-11-10--(10)-|------------------|
|---------------------|----10--10-11-8---|
|---------------------|------------------|
|---------------------|------------------|
|---------------------|------------------|
|---------------------|------------------|


  H         H          H         H
|--------------------|--------------------|
|--------------------|--------------------|
|--------------------|--------------------|
|-7---------8--------|-8---------7--------|
|-5---------6--------|-6---------5--------|
|--------------------|--------------------|
|
| Q   E  E  E Q  +E    Q   E  E  E Q  +E
|----10-11-10--------|----10-11-10--------|
|-------------8--(8)-|-------------8--(8)-|
|--------------------|--------------------|
|--------------------|--------------------|
|--------------------|--------------------|
|--------------------|--------------------|


  H        H            H       H
|---------------------|------------------|
|---------------------|------------------|
|---------------------|------------------|
|-5--------8----------|-8------10--------|
|-5--------6----------|-6-------8--------|
|---------------------|------------------|
|
| Q  E  E  E  Q   +E    Q   Q   E  E E E
|----8-10-11-10--(10)-|------------------|
|---------------------|----10--10-11-8---|
|---------------------|------------------|
|---------------------|------------------|
|---------------------|------------------|
|---------------------|------------------|


  W                    W
|--------------------|--------------------|
|--------------------|--------------------|
|-7------------------|-8------------------|
|-8------------------|-8------------------|
|--------------------|--------------------|
|--------------------|--------------------|
|
| Q   E  E  E Q  +E    Q   E  E  E Q  +E
|----10-11-10--------|----10-11-10--------|
|-------------8--(8)-|-------------8--(8)-|
|--------------------|--------------------|
|--------------------|--------------------|
|--------------------|--------------------|
|--------------------|--------------------|


  W                     H       H
|---------------------|------------------|
|-6-------------------|-6-------8--------|
|-5-------------------|-7-------7--------|
|---------------------|------------------|
|---------------------|------------------|
|---------------------|------------------|
|
| Q  E  E  E  Q   +E    Q   Q   E  E E E
|----8-10-11-10--(10)-|------------------|
|---------------------|----10--10-11-8---|
|---------------------|------------------|
|---------------------|------------------|
|---------------------|------------------|
|---------------------|------------------|

[ Tab from: http://www.guitaretab.com/r/red/185949.html ]
  +W                     +H          H
|----------------------|----------------------|
|-(8)------------------|-(8)--------10--------|
|-(7)------------------|-(7)--------10--------|
|----------------------|----------------------|
|----------------------|----------------------|
|----------------------|----------------------|
|
|  Q    E  E  E Q  +E     Q    E  E  E Q  +E
|------10-11-10--------|------10-11-10--------|
|---------------8--(8)-|---------------8--(8)-|
|----------------------|----------------------|
|----------------------|----------------------|
|----------------------|----------------------|
|----------------------|----------------------|


   +H         H             H       H
|------------------------|-------------------|
|-(10)-------11----------|-13------10--------|
|-(10)-------------------|-12------10--------|
|------------------------|-------------------|
|------------------------|-------------------|
|------------------------|-------------------|
|
|   Q   E  E  E  Q   +E     Q   Q   E  E E E
|-------8-10-11-10--(10)-|-------------------|
|------------------------|-----10--10-11-8---|
|------------------------|-------------------|
|------------------------|-------------------|
|------------------------|-------------------|
|------------------------|-------------------|


   H          H            H          H
|-10---------10---------|-10---------10---------|
|-10----------8---------|-13---------11---------|
|-----------------------|-----------------------|
|-----------------------|-----------------------|
|-----------------------|-----------------------|
|-----------------------|-----------------------|
|
|  Q    E  E  E Q   +E     Q    E  E  E Q   +E
|------10-11-10---------|------10-11-10---------|
|---------------8---(8)-|---------------8---(8)-|
|-----------------------|-----------------------|
|-----------------------|-----------------------|
|-----------------------|-----------------------|
|-----------------------|-----------------------|
|
| Gtr I
|  e e  e  e  e e e  e     e e  e  e  e e e  e
|-----------------------|-----------------------|
|-----------------------|-----------------------|
|-----------------------|-----------------------|
|--7-8--7--5--7-8-7--5--|--7-8--7--5--7-8-7--5--|
|-----------------------|-----------------------|
|-----------------------|-----------------------|


   H         H              Q    Q    H
|-11--------11-----------|-----------17--------|
|-13--------11-----------|-16---15---16--------|
|------------------------|---------------------|
|------------------------|---------------------|
|------------------------|---------------------|
|------------------------|---------------------|
|
|  Q   E  E  E  Q    +E     Q    Q    E  E E E
|------8-10-11-10---(10)-|---------------------|
|------------------------|------10---10-11-8---|
|------------------------|---------------------|
|------------------------|---------------------|
|------------------------|---------------------|
|------------------------|---------------------|
|
|  e e e  e  e  e e   e     e e  e e  e  e e e
|------------------------|---------------------|
|------------------------|---------------------|
|------------------------|---------------------|
|--7-8-7--5--7--8-7---5--|--7-8--7-5--7--8-7-5-|
|------------------------|---------------------|
|------------------------|---------------------|


   H          H            +H           Q    Q
|-17---------15---------|-(15)---------17---18-----|
|-18---------15---------|-(15)---------18---20-----|
|-----------------------|--------------------------|
|-----------------------|--------------------------|
|-----------------------|--------------------------|
|-----------------------|--------------------------|
|
|  Q    E  E  E Q   +E      Q     E  E  E Q    +E
|------10-11-10---------|--------10-11-10----------|
|---------------8---(8)-|-----------------8----(8)-|
|-----------------------|--------------------------|
|-----------------------|--------------------------|
|-----------------------|--------------------------|
|-----------------------|--------------------------|
|
|  e e  e  e  e e e  e      e  e  e  e  e e  e  e
|-----------------------|--------------------------|
|-----------------------|--------------------------|
|-----------------------|--------------------------|
|--7-8--7--5--7-8-7--5--|---7--8--7--5--7-8--7--5--|
|-----------------------|--------------------------|
|-----------------------|--------------------------|


   H         H              Q    Q    Q     Q
|-17--------15-----------|-17---18---20----22---|
|-20---------------------|----------------------|
|------------------------|----------------------|
|------------------------|----------------------|
|------------------------|----------------------|
|------------------------|----------------------|
|
|  Q   E  E  E  Q    +E     Q    Q    E  E  E E
|------8-10-11-10---(10)-|----------------------|
|------------------------|------10---10-11--8---|
|------------------------|----------------------|
|------------------------|----------------------|
|------------------------|----------------------|
|------------------------|----------------------|
|
|  e e e  e  e  e e   e     e e  e e  e  e  e e
|------------------------|----------------------|
|------------------------|----------------------|
|------------------------|----------------------|
|--7-8-7--5--7--8-7---5--|--7-8--7-5--7--8--7-5-|
|------------------------|----------------------|
|------------------------|----------------------|


  Gtr V
   E  E  E  E  E  E  E  E    E  E  E  E  E  E  E  E
|-------------------------|-------------------------|
|-------------------------|-------------------------|
|-------------------------|-------------------------|
|--8--8--8--8--8--8--8--8-|--0--0--0--0--0--0--0--0-|
|--8--8--8--8--8--8--8--8-|--0--0--0--0--0--0--0--0-|
|--8--8--8--8--8--8--8--8-|--0--0--0--0--0--0--0--0-|
|
| Gtr VI
|  E  E  E  E  E  E  E  E    E  E  E  E  E  E  E  E
|-------------------------|-------------------------|
|-------------------------|-------------------------|
|-15-15-15-15-14-14-12-12-|-14-14-10-10-12-12-14-14-|
|--x--x--x--x--x--x--x--x-|--x--x--x--x--x--x--x--x-|
|-13-13-13-13-12-12-10-10-|-12-12--8--8-10-10-12-12-|
|-------------------------|-------------------------|


   E  E  E  E  E  E  E  E    E  E  E  E  E  E  E  E
|-------------------------|-------------------------|
|-------------------------|-------------------------|
|-------------------------|-------------------------|
|--7--7--7--7--7--7--7--7-|--8--8--8--8--8--8--8--8-|
|--7--7--7--7--7--7--7--7-|--8--8--8--8--8--8--8--8-|
|--7--7--7--7--7--7--7--7-|--8--8--8--8--8--8--8--8-|
|
|  E  E  E  E  E  E  E  E    E  E  E  E  E  E  E  E
|-------------------------|-------------------------|
|-------------------------|-------------------------|
|-14-14-14-12-12-12-10-10-|-17-17-17-17-17-17-17-17-|
|--x--x--x--x--x--x--x--x-|--x--x--x--x--x--x--x--x-|
|-12-12-12-10-10-10--8--8-|-15-15-15-15-15-15-15-15-|
|-------------------------|-------------------------|


   E  E  E  E  E  E  E  E    E  E  E  E  E  E  E  E
|-------------------------|-------------------------|
|-------------------------|-------------------------|
|-------------------------|-------------------------|
|--5--5--5--5--5--5--5--5-|--0--0--0--0--0--0--0--0-|
|--5--5--5--5--5--5--5--5-|--0--0--0--0--0--0--0--0-|
|--5--5--5--5--5--5--5--5-|--0--0--0--0--0--0--0--0-|
|
|  E  E  E  E  E  E  E  E    E  E  E  E  E  E  E  E
|-------------------------|-------------------------|
|-------------------------|-------------------------|
|-15-15-15-15-14-14-12-12-|-14-14-10-10-12-12-14-14-|
|--x--x--x--x--x--x--x--x-|--x--x--x--x--x--x--x--x-|
|-13-13-13-13-12-12-10-10-|-12-12--8--8-10-10-12-12-|
|-------------------------|-------------------------|


   E  E  E  E  E  E  E  E    E  E  E  E  E  E  E  E
|-------------------------|-------------------------|
|-------------------------|-------------------------|
|-------------------------|-------------------------|
|--7--7--7--7--7--7--7--7-|--8--8--8--8--8--8--8--8-|
|--7--7--7--7--7--7--7--7-|--8--8--8--8--8--8--8--8-|
|--7--7--7--7--7--7--7--7-|--8--8--8--8--8--8--8--8-|
|
|  E  E  E  E  E  E  E  E    E  E  E  E  E  E  E  E
|-------------------------|-------------------------|
|-------------------------|-------------------------|
|-14-14-14-12-12-12-10-10-|-17-17-17-17-17-17-17-17-|
|--x--x--x--x--x--x--x--x-|--x--x--x--x--x--x--x--x-|
|-12-12-12-10-10-10--8--8-|-15-15-15-15-15-15-15-15-|
|-------------------------|-------------------------|


     E  E   E   E  E   E   E  E    E   E   E  E   E   E  E  E
||------------------------------|-----------------------------|
||o-----------------------------|-----------------------------|
||------------------------------|-----------------------------|
||---5--5---5---5--5---5---5--5-|--0---0---0--0---0---0--0--0-|
||o--5--5---5---5--5---5---5--5-|--0---0---0--0---0---0--0--0-|
||---5--5---5---5--5---5---5--5-|--0---0---0--0---0---0--0--0-|
|
|    E  E   E   E  E   E   E  E    E   E   E  E   E   E  E  E
||------------------------------|-----------------------------|
||o-----------------------------|-----------------------------|
||--15-15--15--15-14--14--12-12-|-14--14--10-10--12--12-14-14-|
||---x--x---x---x--x---x---x--x-|--x---x---x--x---x---x--x--x-|
||o-13-13--13--13-12--12--10-10-|-12--12---8--8--10--10-12-12-|
||------------------------------|-----------------------------|
|
|   Gtr III
|       Q  +E   Q     +E   Q       Q  +E   Q     +E   Q
||-----15-(15)------------15----|-17-(17)------------17-------|
||o------------15----(15)-------|---------15----(15)----------|
||------------------------------|-----------------------------|
||------------------------------|-----------------------------|
||o-----------------------------|-----------------------------|
||------------------------------|-----------------------------|


   E  E   E   E  E   E   E  E    E  E   E   E   E   E  E  E   4x
|-----------------------------|-------------------------------||
|-----------------------------|------------------------------o||
|-----------------------------|-------------------------------||
|--7--7---7---7--7---7---7--7-|--8--8---8---8---8---8--8--8---||
|--7--7---7---7--7---7---7--7-|--8--8---8---8---8---8--8--8--o||
|--7--7---7---7--7---7---7--7-|--8--8---8---8---8---8--8--8---||
|
|  E  E   E   E  E   E   E  E    E  E   E   E   E   E  E  E   4x
|-----------------------------|-------------------------------||
|-----------------------------|------------------------------o||
|-14-14--14--12-12--12--10-10-|-17-17--17--17--17--17-17-17---||
|--x--x---x---x--x---x---x--x-|--x--x---x---x---x---x--x--x---||
|-12-12--12--10-10--10---8--8-|-15-15--15--15--15--15-15-15--o||
|-----------------------------|-------------------------------||
|
|  Q     +E   Q     +E   Q       Q     +E   Q  +E   Q         4x
|-18----(18)------------17----|-15----(15)---------15---------||
|------------15----(15)-------|------------15-(15)-----------o||
|-----------------------------|-------------------------------||
|-----------------------------|-------------------------------||
|-----------------------------|------------------------------o||
|-----------------------------|-------------------------------||


    Q   E  E  E Q  +E    Q   E  E  E Q  +E
||-----10-11-10--------|----10-11-10--------|
||o-------------8--(8)-|-------------8--(8)-|
||---------------------|--------------------|
||---------------------|--------------------|
||o--------------------|--------------------|
||---------------------|--------------------|


  Q  E  E  E  Q   +E    Q   Q   E  E E E   4x
|----8-10-11-10--(10)-|--------------------||
|---------------------|----10--10-11-8----o||
|---------------------|--------------------||
|---------------------|--------------------||
|---------------------|-------------------o||
|---------------------|--------------------||

Duration Legend
---------------
W - whole; H - half; Q - quarter; E - 8th; S - 16th; T - 32nd; X - 64th; a - acciaccatura
+ - note tied to previous; . - note dotted; .. - note double dotted
Uncapitalized letters represent notes that are staccato (1/2 duration)
Irregular groupings are notated above the duration line
Duration letters will always appear directly above the note/fret number it represents the
duration for.  Duration letters with no fret number below them represent rests.  Multi-
bar rests are notated in the form Wxn, where n is the number of bars to rest for.  Low
melody durations appear below the staff

Tablature Legend
----------------
 h   - hammer-on
 p   - pull-off
 b   - bend
 pb  - pre-bend
 r   - bend release (if no number after the r, then release immediately)
 /\  - slide into or out of (from/to "nowhere")
 s   - legato slide
 S   - shift slide
 - natural harmonic
[n]  - artificial harmonic
n(n) - tapped harmonic
 ~   - vibrato
 tr  - trill
 T   - tap
 TP  - trem. picking
 PM  - palm muting
\n/  - tremolo bar dip; n = amount to dip
 \n  - tremolo bar down
 n/  - tremolo bar up
/n\  - tremolo bar inverted dip
 =   - hold bend; also acts as connecting device for hammers/pulls
 <> - volume swell (louder/softer)
 x   - on rhythm slash represents muted slash
 o   - on rhythm slash represents single note slash

Misc Legend
-----------
 |  - bar
||  - double bar
||o - repeat start
o|| - repeat end
*|  - double bar (ending)
 :  - bar (freetime)
 $  - Segno
 &  - Coda
Tempo markers -  = BPM(8/16=s8/s16), where s8 = swing 8ths, s16 = swing 16ths
Related for Take It All Away tab