Song name
# A B C D E F G H I J K L M N O P Q R S T U V W X Y Z

Red - Pieces tab

-----------------------------------------------------------------------------
			     Pieces - Red
-----------------------------------------------------------------------------

Music by Red
Album: End Of Silence  
Song: Pieces
Tuning: Drop B: B F# B E G# C#

Intro / Verse #1

C#|--------------------------------------|
G#|--------------------------------------|
E |--7-7-7-7-7-7-7---4-4-4-4-4-4-4-------|
B |--0-0-0-0-0-0-0-0-0-0-0-0-0-0-0-0-----|
F#|--x-x-x-x-x-x-x-0-x-x-x-x-x-x-x-0-----|  -|
B |--9-9-9-9-9-9-9---5-5-5-5-5-5-5-------|   |
                                             x3
C#|--------------------------------------|   |
G#|--------------------------------------|  -|
E |--7-7-7-7-7-7-7---4-4-4-4-4-6-6-------|
B |--0-0-0-0-0-0-0-0-0-0-0-0-0-0-0-0-----|
F#|--x-x-x-x-x-x-x-0-x-x-x-x-x-x-x-0-----|
B |--9-9-9-9-9-9-9---5-5-5-5-5-7-7-------|

C#|--------------------|
G#|--------------------|
E |--6-6-6-7-7-7-7-----|
B |--x-x-x-x-x-x-x-0---|
F#|--4-4-4-5-5-5-5-0---|
B |--------------------|

C#|--------------------------------------|
G#|--------------------------------------|
E |--7-7-7-7-7-7-7---4-4-4-4-4-4-4-------|
B |--0-0-0-0-0-0-0-0-0-0-0-0-0-0-0-0-----|
F#|--x-x-x-x-x-x-x-0-x-x-x-x-x-x-x-0-----|
B |--9-9-9-9-9-9-9---5-5-5-5-5-5-5-------|
                                         
C#|--------------------------------------|
G#|--------------------------------------|
E |--7-7-7-7-7-7-7---4-4-4-4-4-7-7-------|
B |--0-0-0-0-0-0-0-0-0-0-0-0-0-0-0-0-----|
F#|--x-x-x-x-x-x-x-0-x-x-x-x-x-x-x-0-----|
B |--9-9-9-9-9-9-9---5-5-5-5-5-9-9-------|

C#|---------------------------------------------------------------------|
G#|---------------------------------------------------------------------|
E |--6-6-6-6-6-6-6---7-7-7-7-7-7-7---4-4-4-4-4-4-4-4-4-4-4-4-4-4-4-7----|
B |--0-0-0-0-0-0-0-0-0-0-0-0-0-0-0-0-0-0-0-0-0-0-0-0-0-0-0-0-0-0-0-0----|
F#|--x-x-x-x-x-x-x-0-x-x-x-x-x-x-x-0-x-x-x-x-x-x-x-x-x-x-x-x-x-x-x-x----|
B |--7-7-7-7-7-7-7---9-9-9-9-9-9-9---5-5-5-5-5-5-5-5-5-5-5-5-5-5-5-9----|

Chorus #1

C#|------------------------------------------------------------------------|
G#|------------------------------------------------------------------------|
E |--4-4-4-4-4-4-4---6-6-6-6-6-6-6---7-7-7-7-7-7-7---6-6-6-6-6-6-6---------|
B |--0-0-0-0-0-0-0-0-0-0-0-0-0-0-0-0-0-0-0-0-0-0-0-0-0-0-0-0-0-0-0-0-------|
F#|--x-x-x-x-x-x-x-0-x-x-x-x-x-x-x-0-x-x-x-x-x-x-x-0-x-x-x-x-x-x-x-0-------|
B |--5-5-5-5-5-5-5---7-7-7-7-7-7-7---9-9-9-9-9-9-9---7-7-7-7-7-7-7-----x2--|

C#|---------------------------------------------------------------------------|
G#|---------------------------------------------------------------------------|
E |--4-4-4-4-4-4-4---6-6-6-6-6-6-6---7-7-7-7-7-7-7---9--9--9--9--9--9--9------|
B |--0-0-0-0-0-0-0-0-0-0-0-0-0-0-0-0-0-0-0-0-0-0-0-0-0--0--0--0--0--0--0-0----|
F#|--x-x-x-x-x-x-x-0-x-x-x-x-x-x-x-0-x-x-x-x-x-x-x-0-x--x--x--x--x--x--x-0----|
B |--5-5-5-5-5-5-5---7-7-7-7-7-7-7---9-9-9-9-9-9-9---11-11-11-11-11-11-11-----|

C#|-------------------------|
G#|-------------------------|
E |--4-4-4-4-4-4-4---6~-----|
B |--0-0-0-0-0-0-0-0-0~-----|
F#|--x-x-x-x-x-x-x-0-x~-----|
B |--5-5-5-5-5-5-5---7~-----|

Verse #2

C#|--------------------------------------|
G#|--------------------------------------|
E |--7-7-7-7-7-7-7---4-4-4-4-4-4-4-------|
B |--0-0-0-0-0-0-0-0-0-0-0-0-0-0-0-0-----|
F#|--x-x-x-x-x-x-x-0-x-x-x-x-x-x-x-0-----|  -|
B |--9-9-9-9-9-9-9---5-5-5-5-5-5-5-------|   |
                                             x2
C#|--------------------------------------|   |
G#|--------------------------------------|  -|
E |--7-7-7-7-7-7-7---4-4-4-4-4-6-6-------|
B |--0-0-0-0-0-0-0-0-0-0-0-0-0-0-0-0-----|
F#|--x-x-x-x-x-x-x-0-x-x-x-x-x-x-x-0-----|
B |--9-9-9-9-9-9-9---5-5-5-5-5-7-7-------|

C#|---------------------------------------------------------------------|
G#|---------------------------------------------------------------------|
E |--6-6-6-6-6-6-6---7-7-7-7-7-7-7---4-4-4-4-4-4-4-4-4-4-4-4-4-4-4-7----|
B |--0-0-0-0-0-0-0-0-0-0-0-0-0-0-0-0-0-0-0-0-0-0-0-0-0-0-0-0-0-0-0-0----|
F#|--x-x-x-x-x-x-x-0-x-x-x-x-x-x-x-0-x-x-x-x-x-x-x-x-x-x-x-x-x-x-x-x----|
B |--7-7-7-7-7-7-7---9-9-9-9-9-9-9---5-5-5-5-5-5-5-5-5-5-5-5-5-5-5-9----|

Chorus #2

C#|------------------------------------------------------------------------|
G#|------------------------------------------------------------------------|
E |--4-4-4-4-4-4-4---6-6-6-6-6-6-6---7-7-7-7-7-7-7---6-6-6-6-6-6-6---------|
B |--0-0-0-0-0-0-0-0-0-0-0-0-0-0-0-0-0-0-0-0-0-0-0-0-0-0-0-0-0-0-0-0-------|
F#|--x-x-x-x-x-x-x-0-x-x-x-x-x-x-x-0-x-x-x-x-x-x-x-0-x-x-x-x-x-x-x-0-------|
B |--5-5-5-5-5-5-5---7-7-7-7-7-7-7---9-9-9-9-9-9-9---7-7-7-7-7-7-7-----x2--|

C#|---------------------------------------------------------------------------|
G#|---------------------------------------------------------------------------|
E |--4-4-4-4-4-4-4---6-6-6-6-6-6-6---7-7-7-7-7-7-7---9--9--9--9--9--9--9------|
B |--0-0-0-0-0-0-0-0-0-0-0-0-0-0-0-0-0-0-0-0-0-0-0-0-0--0--0--0--0--0--0-0----|
F#|--x-x-x-x-x-x-x-0-x-x-x-x-x-x-x-0-x-x-x-x-x-x-x-0-x--x--x--x--x--x--x-0----|
B |--5-5-5-5-5-5-5---7-7-7-7-7-7-7---9-9-9-9-9-9-9---11-11-11-11-11-11-11-----|

C#|-------------------------|
G#|-------------------------|
E |--4-4-4-4-4-4-4---6~-----|
B |--0-0-0-0-0-0-0-0-0~-----|
F#|--x-x-x-x-x-x-x-0-x~-----|
B |--5-5-5-5-5-5-5---7~-----|

Bridge

C#|---------------------------------------------------------------------------|
G#|---------------------------------------------------------------------------|
E |--6-6-6-6-6-6-7-7-4-4-4-4-4-4-4-4--7-7-7-7-7-7-9--9--6-6-6-6-6-6-6-6-------|
B |--0-0-0-0-0-0-0-0-0-0-0-0-0-0-0-0--0-0-0-0-0-0-0--0--0-0-0-0-0-0-0-0-------|
F#|--x-x-x-x-x-x-x-x-x-x-x-x-x-x-x-x--x-x-x-x-x-x-x--x--x-x-x-x-x-x-x-x-------|
B |--7-7-7-7-7-7-9-9-5-5-5-5-5-5-5-5--9-9-9-9-9-9-11-11-7-7-7-7-7-7-7-7---x6--|

C#|-------------------------|
G#|-------------------------|
E |--6-6-6-6-6-6-7-7-4~-----|
B |--0-0-0-0-0-0-0-0-0~-----|
F#|--x-x-x-x-x-x-x-x-x~-----|
B |--7-7-7-7-7-7-9-9-5------|

Chorus #3 / Outro

(No guitar but if desired repeat Chorus #2)
Tap to rate this tab
# A B C D E F G H I J K L M N O P Q R S T U V W X Y Z