Song name
# A B C D E F G H I J K L M N O P Q R S T U V W X Y Z

Red - Perfect Life tab

Red-Perfect Life
Drop B
By Dima Filinyuk
Intro: Guitar 1


C#|-------------------------------------|
G#|-------------------------------------|
E |-5-4-3-------------------------------|
B |-0-0-0-3-3-3-3-3-8-8-8-8-10-10-10-7-7|
F#|-0-0-0-3-3-3-3-3-8-8-8-8-10-10-10-7-8|
B |-0-0-0-3-3-3-3-3-8-8-8-8-10-10-10-7-0|


C#|-------------------------------------|
G#|-------------------------------------|
E |-5-4-3-------------------------------|
B |-0-0-0-3-3-3-3-3-8-8-8-8-10-10-10-7-7|
F#|-0-0-0-3-3-3-3-3-8-8-8-8-10-10-10-7-7|
B |-0-0-0-3-3-3-3-3-8-8-8-8-10-10-10-7-7|

End Intro
c#|-------------------------------------|
G#|-------------------------------------|
E |-------------------------------------|
B |-8-8-8-8-10-10-7-7-------------------|
F#|-8-8-8-8-10-10-7-7-------------------|
B |-8-8-8-8-10-10-7-7-------------------|

Verse 1
C#|-------------------------------------|
G#|-------------------------------------|
E |-------------5----------5------------|
B |5-7------7-5---7------7--------------|
F#|-------8------------8----------------|
B |-------------------------------------|

C#|-------------------------------------|
G#|-------------------------------------|
E |-------------5----------5--7---------|
B |5-7------7-5---7------7--------------|
F#|-------8------------8----------------|
B |-------------------------------------|

Chorus

C#|-------------------------------------|
G#|-------------------------------------|
E |-5-4-3-------------------------------|
B |-0-0-0-3-3-3-3-3-8-8-8-8-10-10-10-7-7|
F#|-0-0-0-3-3-3-3-3-8-8-8-8-10-10-10-7-8|
B |-0-0-0-3-3-3-3-3-8-8-8-8-10-10-10-7-0|

C#|-------------------------------------|
G#|-------------------------------------|
E |-5-4-3-------------------------------|
B |-0-0-0-3-3-3-3-3-8-8-8-8-10-10-10-7-7|
F#|-0-0-0-3-3-3-3-3-8-8-8-8-10-10-10-7-7|
B |-0-0-0-3-3-3-3-3-8-8-8-8-10-10-10-7-7|

C#|-------------------------------------|
G#|-------------------------------------|
E |-5-4-3-------------------------------|
B |-0-0-0-3-3-3-3-3-8-8-8-8-10-10-10-7-7|
F#|-0-0-0-3-3-3-3-3-8-8-8-8-10-10-10-7-8|
B |-0-0-0-3-3-3-3-3-8-8-8-8-10-10-10-7-0|

End Chorus

c#|-------------------------------------|
G#|-------------------------------------|
E |-------------------------------------|
B |-8-8-8-8-10-10-7-7-------------------|
F#|-8-8-8-8-10-10-7-7-------------------|
B |-8-8-8-8-10-10-7-7-------------------|

Re-Intro

C#|-------------------------------------|
G#|-------------------------------------|
E |-5-4-3-------------------------------|
B |-0-0-0-3-3-3-3-3-8-8-8-8-10-10-10-7-7|
F#|-0-0-0-3-3-3-3-3-8-8-8-8-10-10-10-7-8|
B |-0-0-0-3-3-3-3-3-8-8-8-8-10-10-10-7-0|

C#|-------------------------------------|
G#|-------------------------------------|
E |-5-4-3-------------------------------|
B |-0-0-0-3-3-3-3-3-8-8-8-8-10-10-10-7-7|
F#|-0-0-0-3-3-3-3-3-8-8-8-8-10-10-10-7-7|
B |-0-0-0-3-3-3-3-3-8-8-8-8-10-10-10-7-7|


Verse 2


C#|-------------------------------------|
G#|-------------------------------------|
E |-------------5----------5------------|
B |5-7------7-5---7------7--------------|
F#|-------8------------8----------------|
B |-------------------------------------|


C#|-------------------------------------|
G#|-------------------------------------|
E |-------------5----------5--7---------|
B |5-7------7-5---7------7--------------|
F#|-------8------------8----------------|
B |-------------------------------------|


Chorus 2

C#|-------------------------------------|
G#|-------------------------------------|
E |-5-4-3-------------------------------|
B |-0-0-0-3-3-3-3-3-8-8-8-8-10-10-10-7-7|
F#|-0-0-0-3-3-3-3-3-8-8-8-8-10-10-10-7-8|
B |-0-0-0-3-3-3-3-3-8-8-8-8-10-10-10-7-0|

C#|-------------------------------------|
G#|-------------------------------------|
E |-5-4-3-------------------------------|
B |-0-0-0-3-3-3-3-3-8-8-8-8-10-10-10-7-7|
F#|-0-0-0-3-3-3-3-3-8-8-8-8-10-10-10-7-7|
B |-0-0-0-3-3-3-3-3-8-8-8-8-10-10-10-7-7|

C#|-------------------------------------|
G#|-------------------------------------|
E |-5-4-3-------------------------------|
B |-0-0-0-3-3-3-3-3-8-8-8-8-10-10-10-7-7|
F#|-0-0-0-3-3-3-3-3-8-8-8-8-10-10-10-7-8|
B |-0-0-0-3-3-3-3-3-8-8-8-8-10-10-10-7-0|


End Chorus

c#|-------------------------------------|
G#|-------------------------------------|
E |-------------------------------------|
B |-8-8-8-8-10-10-7-7-------------------|
F#|-8-8-8-8-10-10-7-7-------------------|
B |-8-8-8-8-10-10-7-7-------------------|

Re-Intro

C#|-------------------------------------|
G#|-------------------------------------|
E |-5-4-3-------------------------------|
B |-0-0-0-3-3-3-3-3-8-8-8-8-10-10-10-7-7|
F#|-0-0-0-3-3-3-3-3-8-8-8-8-10-10-10-7-8|
B |-0-0-0-3-3-3-3-3-8-8-8-8-10-10-10-7-0|

C#|-------------------------------------|
G#|-------------------------------------|
E |-5-4-3-------------------------------|
B |-0-0-0-3-3-3-3-3-8-8-8-8-10-10-10-7-7|
F#|-0-0-0-3-3-3-3-3-8-8-8-8-10-10-10-7-7|
B |-0-0-0-3-3-3-3-3-8-8-8-8-10-10-10-7-7|


Bridge 

C#|-----------------------------------------------|
G#|-----------------------------------------------|
E |-----------------------------------------------|
B |-8-8-8-8-8-8-8-8-5-0-0-0-0-5-0-0-0-0-10-10-7-7-|
F#|-8-8-8-8-8-8-8-8-5-0-0-0-0-5-0-0-0-0-10-10-7-7-|
B |-8-8-8-8-8-8-8-8-x-0-0-0-0-x-0-0-0-0-10-10-7-7-|

C#|-----------------------------------------------|
G#|-----------------------------------------------|
E |-----------------------------------------------|
B |-8-8-8-8-8-8-8-8-5-0-0-0-0-5-0-0-0-0-10-10-7-7-|
F#|-8-8-8-8-8-8-8-8-5-0-0-0-0-5-0-0-0-0-10-10-7-7-|
B |-8-8-8-8-8-8-8-8-x-0-0-0-0-x-0-0-0-0-10-10-7-7-|

C#|----------------------------------------------------|
G#|----------------------------------------------------|
E |----------------------------------------------------|
B |-8-8-8-8-8-8-8-8-0-0-0-0-3-3-3-3-3-3-3-8-8-8-8-10-7-|
F#|-8-8-8-8-8-8-8-8-0-0-0-0-3-3-3-3-3-3-3-8-8-8-8-10-7-|
B |-8-8-8-8-8-8-8-8-0-0-0-0-3-3-3-3-3-3-3-8-8-8-8-10-7-|

Chorus 

C#|-------------------------------------|
G#|-------------------------------------|
E |-5-4-3-------------------------------|
B |-0-0-0-3-3-3-3-3-8-8-8-8-10-10-10-7-7|
F#|-0-0-0-3-3-3-3-3-8-8-8-8-10-10-10-7-8|
B |-0-0-0-3-3-3-3-3-8-8-8-8-10-10-10-7-0|

C#|-------------------------------------|
G#|-------------------------------------|
E |-5-4-3-------------------------------|
B |-0-0-0-3-3-3-3-3-8-8-8-8-10-10-10-7-7|
F#|-0-0-0-3-3-3-3-3-8-8-8-8-10-10-10-7-7|
B |-0-0-0-3-3-3-3-3-8-8-8-8-10-10-10-7-7|

C#|-------------------------------------|
G#|-------------------------------------|
E |-5-4-3-------------------------------|
B |-0-0-0-3-3-3-3-3-8-8-8-8-10-10-10-7-7|
F#|-0-0-0-3-3-3-3-3-8-8-8-8-10-10-10-7-8|
B |-0-0-0-3-3-3-3-3-8-8-8-8-10-10-10-7-0|

End Chorus

c#|-------------------------------------|
G#|-------------------------------------|
E |-------------------------------------|
B |-8-8-8-8-10-10-7-7-------------------|
F#|-8-8-8-8-10-10-7-7-------------------|
B |-8-8-8-8-10-10-7-7-------------------|

Outro

C#|-------------------------------------|
G#|-------------------------------------|
E |-5-4-3-------------------------------|
B |-0-0-0-3-3-3-3-3-8-8-8-8-10-10-10-7-7|
F#|-0-0-0-3-3-3-3-3-8-8-8-8-10-10-10-7-8|
B |-0-0-0-3-3-3-3-3-8-8-8-8-10-10-10-7-0|

C#|-------------------------------------|
G#|-------------------------------------|
E |-5-4-3-------------------------------|
B |-0-0-0-3-3-3-3-3-8-8-8-8-10-10-10-7-7|
F#|-0-0-0-3-3-3-3-3-8-8-8-8-10-10-10-7-7|
B |-0-0-0-3-3-3-3-3-8-8-8-8-10-10-10-7-7|

C#|-------------------------------------|
G#|-------------------------------------|
E |-5-4-3-------------------------------|
B |-0-0-0-3-3-3-3-3-8-8-8-8-10-10-10-7-7|
F#|-0-0-0-3-3-3-3-3-8-8-8-8-10-10-10-7-8|
B |-0-0-0-3-3-3-3-3-8-8-8-8-10-10-10-7-0|

c#|-------------------------------------|
G#|-------------------------------------|
E |-------------------------------------|
B |-8-8-8-8-8-8-10-10-10-7-7-7----------|
F#|-8-8-8-8-8-8-10-10-10-7-7-7----------|
B |-8-8-8-8-8-8-10-10-10-7-7-7----------|
Tap to rate this tab
 
# A B C D E F G H I J K L M N O P Q R S T U V W X Y Z