Song name
# A B C D E F G H I J K L M N O P Q R S T U V W X Y Z

Red - Death Of Me tab

RED
Death Of Me
Tabbed by U B the band
Tuning Bb F Bb Eb G C

Legend
h-hammer on                       p-pull off

Intro: Guitars 1 & 2 (Distorted) PLAY 4 TIMES
 C|---------------------------------------------------------------------------|
 G|---------------------------------------------------------------------------|
Eb|-------------------5--5--5--8--8--8---------------------3--3--3------------|
Bb|--0----0----0--0---5--5--5--8--8--8----0----0----0--0---3--3--3--3--3--3---|
 F|--0----0----0--0---3--3--3--6--6--6----0----0----0--0---1--1--1--3--3--3---|
Bb|--0----0----0--0-----------------------0----0----0--0------------3--3--3---|

Verse 1: Guitar 1 (Low Volume Distortion with Fuzz) PLAY 3 TIMES
 C|---------------------------------------------------------------------------|
 G|---------------------------------------------------------------------------|
Eb|---------------------------------------------------------------------------|
Bb|---------------------------------------------------------------------------|
 F|---------------------------------------------------------------------------|
Bb|--0---0---3---0-------0-h-3-p-0--0----3--3----5--5----6--6----5--5----6----|

Verse 1: Guitar 1 (Low Volume Distortion with Fuzz) PLAY 1 TIME
 C|---------------------------------------------------------------------------|
 G|---------------------------------------------------------------------------|
Eb|---------------------------------------------------------------------------|
Bb|---------------------------------------------------------------------------|
 F|---------------------------------------------------------------------------|
Bb|--0---0---3---0-------0-h-3-p-0--0----3--3----5--5----6--6----5--5--5--6---|
                                                                              |
Verse 1: Guitar 2 (Distortion) PLAY 1 TIME                                    |
 C|---------------------------------------------------------------------------|
 G|---------------------------------------------------------------------------|
Eb|---------------------------------------------------------------------------|
Bb|---------------------------------------------------------------------------|
 F|---------------------------------------------------------------------------|
Bb|------------------------------------------------------6--6----5--5--5--6---|

Chorus: Guitars 1 & 2 (Distorted) PLAY 2 TIMES
 C|---------------------------------------------------------------------------|
 G|---------------------------------------------------------------------------|
Eb|----------------------------------------3---3---3-3-3-3----2---2---2-2-2-2-|
Bb|--0---0---0-0-0-0----3---3---3-3-3-3----3---3---3-3-3-3----3---3---3-3-3-3-|
 F|--0---0---0-0-0-0----3---3---3-3-3-3----1---1---1-1-1-1----0---0---0-0-0-0-|
Bb|--0---0---0-0-0-0----3---3---3-3-3-3---------------------------------------|

Verse 2: Guitar 1 (Low Volume Distortion with Fuzz) PLAY 3 TIMES
 C|---------------------------------------------------------------------------|
 G|---------------------------------------------------------------------------|
Eb|---------------------------------------------------------------------------|
Bb|---------------------------------------------------------------------------|
 F|---------------------------------------------------------------------------|
Bb|--0---0---3---0-------0-h-3-p-0--0----3--3----5--5----6--6----5--5----6----|

Verse 2: Guitar 1 (Low Volume Distortion with Fuzz) PLAY 1 TIME
 C|---------------------------------------------------------------------------|
 G|---------------------------------------------------------------------------|
Eb|---------------------------------------------------------------------------|
Bb|---------------------------------------------------------------------------|
 F|---------------------------------------------------------------------------|
Bb|--0---0---3---0-------0-h-3-p-0--0----3--3----5--5----6--6----5--5--5--6---|
                                                                              |
Verse 2: Guitar 2 (Distortion) PLAY 1 TIME                                    |
 C|---------------------------------------------------------------------------|
 G|---------------------------------------------------------------------------|
Eb|---------------------------------------------------------------------------|
Bb|---------------------------------------------------------------------------|
 F|---------------------------------------------------------------------------|
Bb|------------------------------------------------------6--6----5--5--5--6---|

Chorus: Guitars 1 & 2 (Distorted) PLAY 4 TIMES
 C|---------------------------------------------------------------------------|
 G|---------------------------------------------------------------------------|
Eb|----------------------------------------3---3---3-3-3-3----2---2---2-2-2-2-|
Bb|--0---0---0-0-0-0----3---3---3-3-3-3----3---3---3-3-3-3----3---3---3-3-3-3-|
 F|--0---0---0-0-0-0----3---3---3-3-3-3----1---1---1-1-1-1----0---0---0-0-0-0-|
Bb|--0---0---0-0-0-0----3---3---3-3-3-3---------------------------------------|

Bridge: Guitars 1 & 2 (Distorted) PLAY 1 TIME
 C|---------------------------------------------------------------------------|
 G|---------------------------------------------------------------------------|
Eb|---------------------------------------------------------------------------|
Bb|---------------------------------------------------------------------------|
 F|---------------------------------------------------------------------------|
Bb|--0--0--1--0---------------------------0--0--1--0--------------------------|

Bridge: Guitars 1 & 2 (Distorted) PLAY 1 TIME
 C|---------------------------------------------------------------------------|
 G|---------------------------------------------------------------------------|
Eb|---------------------------------------------------------------------------|
Bb|---------------------------------------------------------------------------|
 F|---------------------------------------------------------------------------|
Bb|--0--0--1--0------0--0--1-3-3-3-6-6-6--0--0--1--0------0--0--1-3-3-3-6-6-6-|

Bridge: Guitars 1 & 2 (Distorted) PLAY 2 TIMES
 C|---------------------------------------------------------------------------|
 G|---------------------------------------------------------------------------|
Eb|---------------------------------------------------------------------------|
Bb|--0h1-0--0h1-0-----0h1-0--0h1-3h66666--0h1-0--0h1-0-----0h1-0--0h1-3h66666-|
 F|--0h1-0--0h1-0-----0h1-0--0h1-3h66666--0h1-0--0h1-0-----0h1-0--0h1-3h66666-|
Bb|--0h1-0--0h1-0-----0h1-0--0h1-3h66666--0h1-0--0h1-0-----0h1-0--0h1-3h66666-|

Post Bridge: Guitar 1 (Low Volume Distortion with Fuzz) PLAY 3 TIMES
 C|---------------------------------------------------------------------------|
 G|---------------------------------------------------------------------------|
Eb|---------------------------------------------------------------------------|
Bb|---------------------------------------------------------------------------|
 F|---------------------------------------------------------------------------|
Bb|--0---0---3---0-------0-h-3-p-0--0----3--3----5--5----6--6----5--5----6----|

Post Bridge: Guitar 1 (Low Volume Distortion with Fuzz) PLAY 1 TIME
 C|---------------------------------------------------------------------------|
 G|---------------------------------------------------------------------------|
Eb|---------------------------------------------------------------------------|
Bb|---------------------------------------------------------------------------|
 F|---------------------------------------------------------------------------|
Bb|--0---0---3---0-------0-h-3-p-0--0----3--3----5--5----6--6----5--5--5--6---|
                                                                              |
Post Bridge: Guitar 2 (Distortion) PLAY 1 TIME                                |
 C|---------------------------------------------------------------------------|
 G|---------------------------------------------------------------------------|
Eb|---------------------------------------------------------------------------|
Bb|---------------------------------------------------------------------------|
 F|---------------------------------------------------------------------------|
Bb|------------------------------------------------------6--6----5--5--5--6---|

Chorus: Guitars 1 & 2 (Distorted) PLAY 4 TIMES
 C|---------------------------------------------------------------------------|
 G|---------------------------------------------------------------------------|
Eb|----------------------------------------3---3---3-3-3-3----2---2---2-2-2-2-|
Bb|--0---0---0-0-0-0----3---3---3-3-3-3----3---3---3-3-3-3----3---3---3-3-3-3-|
 F|--0---0---0-0-0-0----3---3---3-3-3-3----1---1---1-1-1-1----0---0---0-0-0-0-|
Bb|--0---0---0-0-0-0----3---3---3-3-3-3---------------------------------------|

Outro: Guitar 3 (Acoustic) PLAY 4 TIMES (FADE OUT)
 C|---------------------------------------------------------------------------|
 G|--3--3----3--3--3----------------------------------------------------------|
Eb|--2--2----2--2--2----5--5----5--5--5-5--3--3----3--3--3-3--2--2----2--3--2-|
Bb|--0--0----0--0--0----3--3----3--3--3-3--3--3----3--3--3-3--3--3----3--3--3-|
 F|--0--0----0--0--0----3--3----3--3--3-3--1--1----1--1--1-1--0--0----0--0--0-|
Bb|--0--0----0--0--0----3--3----3--3--3-3-------------------------------------|

Finished!
Tap to rate this tab
 
# A B C D E F G H I J K L M N O P Q R S T U V W X Y Z