Song name
# A B C D E F G H I J K L M N O P Q R S T U V W X Y Z

Reel Big Fish - Drinkin tab

-------------------------------------------------------------------------------
			     Drinkin' solo - Reel big fish
-------------------------------------------------------------------------------
Tabbed by:Oli Fletcher
Email: no.more.sorrow_x@hotmail.com

Tuning:Standard

um its my first tab....

hopefully its all good.... just listen to the song for the timing. rate please :) thank you x
the only "intermidiate" bit is the fast pull offs bit. :)
p = pull offs
h = Hammer ons
/ = slide
(y) = thumbs up :D

e|---------------------------------------------------------------------------|
B|---------------------------------------------------------------------------|
G|---------------------------------------------------------------------------|
D|---------------------------------------------------------------------------|
A|-----------5---5--7--5---------4--4---7---4---4h5--5--4h5--5--4h5--5--5----|
E|---1-3--3---------------5--5-----------------------------------------------|

e|--------------------------------------------------9-/-10--10--10--10--10---|
B|--------------------------------------------------9-/-10--10--10--10--10---|
G|---------------------------------------------------------------------------|
D|---------------------------------------------------------------------------|
A|-----------5---5--7--5---------4--4---7---4--------------------------------|
E|---1-3--3---------------5--5-----------------------------------------------|

e|------------------------------2-/-3--3--6p5p3---------5--5--8p7p5----------|
B|------------------------------2-/-3--3--------6p5p3---5--5----------8p7p5--|
G|--12---10--12--10----------------------------------------------------------|
D|--------------------12--12-------------------------------------------------|
A|---------------------------------------------------------------------------|
E|---------------------------------------------------------------------------|

e|--10--10--101010---7---7---777----3---3---333---5---5--555-----------------|
B|--10--10--101010---7---7---777----3---3---333---5---5--555-----------------|
G|---------------------------------------------------------------------------|
D|---------------------------------------------------------------------------|
A|---------------------------------------------------------------------------|
E|---------------------------------------------------------------------------|

Finito riff - pretty cool (Y)

e|------10--10--10--10--9--9--7--7-------------------------------------------|
B|--------10--10--10--10-10-10-10-10---repeat--------------------------------|
G|---------------------------------------------------------------------------|
D|---------------------------------------------------------------------------|
A|---------------------------------------------------------------------------|
E|---------------------------------------------------------------------------|

Tap to rate this tab
# A B C D E F G H I J K L M N O P Q R S T U V W X Y Z