Song name
# A B C D E F G H I J K L M N O P Q R S T U V W X Y Z

Rehab - Sitting At A Bar tab

----------------------------------------------------------------------------
                           Sittin' at a Bar by Rehab
----------------------------------------------------------------------------
Tabbed by: Cameron F.
Email: Fitzh2o283@gmail.com
Tuning:Standard

A Capo can be used on either 1st or 2nd fret.

INTRO:(This is perfect version for singing along with)

|--------------------------------------------------------3-3-3-3---||
|----------3---3-3----------------2---2-2----------------1-0-1-0---||
|----------2^4-2-2^4--4--6--4--2--2^4-2-2^4-----2--0-----0-0-0-0---||
|----0--4------------------------------------4--------0----0---0---||
|------------------------------------------------------------------||
|------------------------------------------------------------------||

   PM
|------------------------------------------------------------------||
|------------------------------------------------------------------||
|-----------------2-2---2-2----------------------------------------||
|--0-0------------2-2^4-2-2^(4)------------------------------------||
|--0--------0------------------------------------------------------||
|------------------------------------------------------------------||

VERSE: (x3)

|------------------------------------------------------------------||
|----------3----------3---(3)-----------2----------2---(2)---------||
|----------2----------2^4-(2)-----------2----------2^4-(2)---------||
|----0--4-------0--4---------------4----------4--------------------||
|-------------------------------4----------4-----------------------||
|------------------------------------------------------------------||

   
|------------------------------------------------------------------||
|--------0^1----------0^1-0----------------------------------------||
|-----0------------0-----------------2------------2----------------||
|--0------------0-----------------2--2^4-------2--2^4--2-----------||
|------------------------------0------------0----------------------||
|------------------------------------------------------------------||

CHORUS:
                 D
I'm sittin at a bar on the inside
                A
Waiting for my ride on the outside
                G
She broke my heart in the trailer park
       C
So I jacked the keys to her fuckin car
       A
And crashed that piece of shit

And then stepped away


Repeat INTRO



Order Of Song:
1) Intro
2) Verse
3) Chorus
4) Intro
(Keep doing this pattern until the end of the song.)


Good song & easy to nail. Good Luck!
Tap to rate this tab
 
# A B C D E F G H I J K L M N O P Q R S T U V W X Y Z