Guitaretab - guitar tabs
Song name
# A B C D E F G H I J K L M N O P Q R S T U V W X Y Z

Reindeer Section - You Are My Joy tab

This is my first real attempt at a tab, so its probably not 100% accurate, but it sounds
good enough to me when I'm playing along to the recording.

VERSES/CHORUS:

E|---------|
B|---------|
G|--77-----|
D|--77-77--|
A|--55-77--|
E|-----55--|

As far as I can tell thats pretty much it for the entire song, verses and choruses,
just D and A. Can't remember how many strums on each chord it is, but its pretty
easy to hear when the change is if you listen to the song.
[ Tab from: http://www.guitaretab.com/r/reindeer-section/139974.html ]
Then there's a little synth solo bit towards the end, which I think can be played
like this on guitar:

RIFF/SOLO:

E|----------------------------14--|
B|------7-8-10-12-14-15-14-15-----|
G|--7-9---------------------------|
D|--------------------------------|
A|--------------------------------|
E|--------------------------------|

This is played four times I think it is, then everything drops out except drums,
bass and vocals before kicking in again for the final chorus when this riff/solo
is played over the top.

Comments/feedback welcome! But go easy... it is my first tab! ;)
Related for You Are My Joy tab
Advertisement will be closed in 10 seconds