Song name
# A B C D E F G H I J K L M N O P Q R S T U V W X Y Z

Reindeer Section - Sting tab

Track 10: Sting of 'Y'all Get Scared Now Ya Hear' and i think its the best
song on the album.  This is damn easy song but effective, and good 2 play.

E -----------------|-----------------|-----------------|-----------------|
B -----3-----3-----|-----3-----3-----|-----1-----1-----|-----1-----1-----|
G ---4-----4-----4-|---4-----4-----4-|---2-----2-----2-|---2-----2-----2-|
D -5-----5-----5---|-5-----5-----5---|-3-----3-----3---|-3-----3-----3---|
A -----------------|-----------------|-----------------|-----------------|
E -----------------|-----------------|-----------------|-----------------|

E -----------------|-----------------|-----------------|-----------------|
B -----3-----3-----|-----3-----3-----|-----1-----1-----|-----1-----1-----|
G ---4-----4-----4-|---4-----4-----4-|---2-----2-----2-|---2-----2-----2-|
D -5-----5-----5---|-5-----5-----5---|-3-----3-----3---|-3-----3-----3---|
A -----------------|-----------------|-----------------|-----------------|
E -----------------|-----------------|-----------------|-----------------|

u just repeat this throughout the whole song until u can hear it end at the
end (sorry 2 point out the obvious)soo easy!
Tap to rate this tab
# A B C D E F G H I J K L M N O P Q R S T U V W X Y Z