Song name
# A B C D E F G H I J K L M N O P Q R S T U V W X Y Z

Relient K - What Can I Do tab

Verse
e|--------------------------------------------------|
B|--------------------------------------------------|
G|-7-x-7-x-7-7-7-7--7-x-7-x-7-7-7-7--5-x-5-x-5-5-5-5|
D|-5-x-5-x-5-5-5-5--5-x-5-x-5-5-5-5--5-x-5-x-5-5-5-5|
A|-7-x-7-x-7-7-7-7--5-x-5-x-5-5-5-5--3-x-3-x-3-3-3-3|
E|--------------------------------------------------|

e|------------------0---0---0-0-0-0-----------------|
B|------------------3---3---3-3-3-3-----------------|
G|-7-x-7-x-7-7-7-7--0-x-0-x-0-0-0-0--5-x-5-x-5-5-5-5|
D|-5-x-5-x-5-5-5-5--4-x-4-x-4-4-4-4--5-x-5-x-5-5-5-5|
A|-7-x-7-x-7-7-7-7--5-x-5-x-5-5-5-5--3-x-3-x-3-3-3-3|
E|--------------------------------------------------|

To the chorus
e|-------0------------------------------------------|
B|-------3------------------------------------------|
G|-7-----0-----5------------------------------------|
D|-5-----4-----5------------------------------------|
A|-7-----5-----3------------------------------------|
E|--------------------------------------------------|

Chorus
e|-3-3-3-3-3-3--3-3-3-3-3-3---3-3-3-3-3-3--3-3-3-3-3-3-3-3--3-3-3-3-3-3-|
B|-3-3-3-3-3-3--3-3-3-3-3-3---3-3-3-3-3-3--3-3-3-3-3-3-3-3--3-3-3-3-3-3-|
G|-0-0-0-0-0-0--2-2-2-2-2-2---0-0-0-0-0-0--0-0-0-0-2-2-2-2--0-0-0-0-0-0-|
D|-0-0-0-0-0-0--0-0-0-0-0-0---2-2-2-2-2-2--2-2-2-2-2-2-2-2--2-2-2-2-2-2-|
A|-2-2-2-2-2-2--0-0-0-0-0-0---2-2-2-2-2-2--3-3-3-3-0-0-0-0--3-3-3-3-3-3-|
E|-3-3-3-3-3-3--2-2-2-2-2-2---0-0-0-0-0-0-------------------------------|

e|-0-0-0--0-0-0---------------------------------------------------------|
B|-3-3-3--1-1-1---------------------------------------------------------|
G|-0-0-0--0-0-0---------------------------------------------------------|
D|-4-4-4--2-2-2---------------------------------------------------------|
A|-5-5-5--3-3-3---------------------------------------------------------|
E|----------------------------------------------------------------------|

Outro(darkness comes to light...)
e|-3-3-3-3-3-3--3-3-3-3-3-3--3-3-3-3-3-3--3-3-3-3-3-3----------------------|
B|-3-3-3-3-3-3--3-3-3-3-3-3--3-3-3-3-3-3--3-3-3-3-3-3----------------------|
G|-0-0-0-0-0-0--0-0-0-0-0-0--2-2-2-2-2-2--0-0-0-2-2-2----------------------|
D|-0-0-0-0-0-0--2-2-2-2-2-2--2-2-2-2-2-2--2-2-2-0-0-0----------------------|
A|-2-2-2-2-2-2--2-2-2-2-2-2--0-0-0-0-0-0--3-3-3-0-0-0----------------------|
E|-3-3-3-3-3-3--0-0-0-0-0-0------------------------------------------------|

Hope i pick it up right :)
Enjoy!
Tap to rate this tab
# A B C D E F G H I J K L M N O P Q R S T U V W X Y Z