Song name
# A B C D E F G H I J K L M N O P Q R S T U V W X Y Z

Relient K - Manic Monday tab

Intro (synth + 2nd time Guitar)

Lead
eb--------------------------------------------------------------------------|
Bb---------10---8-7---------------------------------------------------------|
Gb-------9----------9-11--9h11p9--7/9--7/6--4/6---6------7------------------|
Db-----7--------------------------------------------------------------------|
Ab--------------------------------------------------------------------------|
Db--------------------------------------------------------------------------|x2

Rythm 1st time
eb--------------------------------------------------------------------------|
Bb--------------------------------------------------------------------------|
Gb----------------------------------------------6~---7~---------------------|
Db----------------------------------------------6~---7~---------------------|
Ab----------------------------------------------4~---5~---------------------|
Db--------------------------------------------------------------------------|

Rythm 2nd Time
eb--------------------------------------------------------------------------|
Bb--------------------------------------------------------------------------|
Gb-----7-----------------6------7---------7~--------------------------------|
Db-----7--------5--------6------7---------7~--------------------------------|
Ab-----5--------5--------4------5---------5~--------------------------------|
Db--------------5-----------------------------------------------------------|

==============

Verse

Rythm
eb--------------------------------------------------------------------------|
Bb--------------------------------------------------------------------------|
Gb-----7-------------7------------------------------------------------------|
Db-----7------5------7------5-----------------------------------------------|
Ab-----5------5------5------5-----------------------------------------------|
Db------------5-------------5-----------------------------------------------|x3
       *      *      *      *

eb--------------------------------------------------------------------------|
Bb--------------------------------------------------------------------------|
Gb-----7-------------7------7~----------------------------------------------|
Db-----7------5------7------7~----------------------------------------------|
Ab-----5------5------5------5~----------------------------------------------|
Db------------5-------------------------------------------------------------|
       *      *      *      *

Lead (piano part - played right after words in verses))
eb--------------------------------------------------------------------------|
Bb-----5-7---8-7-5---5---5-7-5----------------------------------------------|
Gb-----------------8-----------8--------------------------------------------|
Db--------------------------------------------------------------------------|
Ab--------------------------------------------------------------------------|
Db--------------------------------------------------------------------------|x3

=============

Chorus
eb--------------------------------------------------------------------------|
Bb--------------------------------------------------------------------------|
Gb-----7---------7----------------------------------------------------------|
Db-----7----5----7------5-4-2-----------------------------------------------|
Ab-----5----5----5------5-4-2-----------------------------------------------|
D-----------5-----------5-4-2-----------------------------------------------|

eb--------------------------------------------------------------------------|
Bb--------------------------------------------------------------------------|
Gb-----7---------7----------------7~----------------------------------------|
Db-----7----5----7------5-4-7-----7~----------------------------------------|
Ab-----5----5----5------5-4-7-----5~----------------------------------------|
Db----------5-----------5-4-7-----------------------------------------------|

==============

Verse 2

1st half (lead only)
eb--------------------------------------------------------------------------|
Bb--------------------------------------------------------------------------|
Gb--------------------------------------------------------------------------|
Db-----------4---4---4p0--------4---4-0-0-0-------4---4---4p0-------2-----4-|
Ab------5-5----5---5--------------------------5-5---5---5-------------------|
Db--------------------------5-5---5-----------------------------5-5----55---|x2
        * *  * * * * *      * * * * * * * *   * * * * * * *     * * *  ** *
eb--------------------------------------------------------------------------|
Bb--------------------------------------------------------------------------|
Gb------7-7-7x--------------------------------------------------------------|
Db------7-7-7x--------------------------------------------------------------|
Ab------5-5-5x--------------------------------------------------------------|
Db--------------------------------------------------------------------------|


2nd Half (Rythm)

		  | (passing Ab chord)
eb-----------------|--------------------------------------------------------|
Bb-----------------|--------------------------------------------------------|
Gb----------7------|-7-------7----------------------------------------------|
Db------5---7---5-7|-7---5---7---5~~----------------------------------------|
Ab------5---5---5-7|-5---5---5---5~~----------------------------------------|
Db------5-------5-7|-----5-------5~~----------------------------------------|


	    |  play the riff starting on the C# chord
eb--------------------------------------------------------------------------|
Bb--------------10---8-7----------------------------------------------------|
Gb------------9----------9-11--9h11p9--7/9--7/6--4/7---7--8-----------------|
Db----------7---------------------------------------------------------------|
Ab--------------------------------------------------------------------------|
Db--------------------------------------------------------------------------|


===========
Chorus
===========

Piano Part (what chord is this? i'd palm mute it on guitar)

Bridge
eb--------------------------------------------------------------------------|
Bb--------------------------------------------------------------------------|
Gb--------------------------------------------------------------------------|
Db----2~~-------------------------------------------------------------------|
Ab----2~~-------------------------------------------------------------------|
Db----2~~-------------------------------------------------------------------|


eb--------------------------------------------------------------------------|
Bb--------------------------------------------------------------------------|
Gb--------------------------------------------------------------------------|
Db----5---7---9-------------------------------------------------------------|
Ab----5---7---9-------------------------------------------------------------|
Db----5---7---9-------------------------------------------------------------|


quiet part
cmon feel the noise~~


Chorus (Key change)
eb--------------------------------------------------------------------------|
Bb--------------------------------------------------------------------------|
Gb--------------------------------------------------------------------------|
Db---7~---------------------------------------------------------------------|
Ab---7~---------------------------------------------------------------------|
Db---7~---------------------------------------------------------------------|

eb---------------------------------------------------------------------------|
Bb---------------------------------------------------------------------------|
Gb---9-------9---------------------------------------------------------------|
Db---9---7---9---7-6-4-------------------------------------------------------|
Ab---7---7---7---7-6-4-------------------------------------------------------|
Db-------7-------7-6-4-------------------------------------------------------|x2


eb--------------------------------------------------------------------------|
Bb--------------------------------------------------------------------------|
Gb---9~-------------------9-------9-----------------------------------------|
Db---9~----------7-6-4----9---7---9---7~-----2~-----------------------------|
Ab---7~----------7-6-4----7---7---7---7~-----2~-----------------------------|
Db---------------7-6-4--------7-------7~-----2~-----------------------------|


Piano Outro
Tap to rate this tab
# A B C D E F G H I J K L M N O P Q R S T U V W X Y Z