Song name
# A B C D E F G H I J K L M N O P Q R S T U V W X Y Z

Renounced - Forsaken tab

     e|-------------------------------|
     b|----------------------11----11-|
 GTR G|----------------------14----14-|
  1  D|-------------------------------| x12
     A|--------------------------0----|
     D|-000000-000000-000000-----0----|
        PMPMPM PMPMPM PMPMPM    PM

     e|-------------15----------------------15--------|
     b|-------13-------13----13-------13-------13-----|
 GTR G|----14----14-------14-------14----14-------14--|
  2  D|-12----------------------12--------------------| x12 
     A|-----------------------------------------------| 
     D|-----------------------------------------------|

     e|--------------|
     b|--------------|
 GTR G|--------------|
 1+2 D|-0------------|
     A|-0-(Let ring)-|
     D|-0------------|

     e|--------------------------------------------------------------------|
     b|------------------------------------------------4-4-4-4-------------|
 GTR G|-10-10-10-10-10-14-14-14-14-14-14-14-14---------7-7-7-7-------------|
  1  D|-10-10-10-10-10-14-14-14-14-14-14-14-14-1p0-----------------6----3--| 1,3
     A|-8--8--8--8--8--12-12-12-12-12-12-12-12-1p0-0-0---------0-0-6--0-3--|
     D|-8--8--8--8--8--12-12-12-12-12-12-12-12-1p0-0-0---------0-0-6--0-3--|
                                                   P M         P M   PM

     e|--------------------------------------------------------------------|
     b|--------------------------------------------------------------------|
 GTR G|-10-10-10-10-10-14-14-14-14-14-14-14-14---------7-7-7-7-----8----5--|
  2  D|-10-10-10-10-10-14-14-14-14-14-14-14-14-1p0-----6-6-6-6-----8----5--| 1,3
     A|-8--8--8--8--8--12-12-12-12-12-12-12-12-1p0-0-0-5-5-5-5-0-0-6--0-3--|
     D|-8--8--8--8--8--12-12-12-12-12-12-12-12-1p0-0-0---------0-0-6--0-3--|
                                                   P M         P M   PM

     e|----------------------------------------|----------------x4---------------|
     b|----------------------------------------|-------------------------4-4-4-4-|
 GTR G|-10-10-10-10-10-14-14-14-14-14-14-14-14-|-------------------------7-7-7-7-|
  1  D|-10-10-10-10-10-14-14-14-14-14-14-14-14-|-1p0---1p0---1p0---1p0-----------| 2
     A|-8--8--8--8--8--12-12-12-12-12-12-12-12-|-1p0-0-1p0-0-1p0-0-1p0-0---------|
     D|-8--8--8--8--8--12-12-12-12-12-12-12-12-|-1p0-0-1p0-0-1p0-0-1p0-0---------|
                                                    PM    PM    PM    PM   

     e|----------------------------------------|----------------x4---------------|
     b|----------------------------------------|---------------------------------|
 GTR G|-10-10-10-10-10-14-14-14-14-14-14-14-14-|-------------------------7-7-7-7-|
  1  D|-10-10-10-10-10-14-14-14-14-14-14-14-14-|-1p0---1p0---1p0---1p0---6-6-6-6-| 2
     A|-8--8--8--8--8--12-12-12-12-12-12-12-12-|-1p0-0-1p0-0-1p0-0-1p0-0-5-5-5-5-|
     D|-8--8--8--8--8--12-12-12-12-12-12-12-12-|-1p0-0-1p0-0-1p0-0-1p0-0---------|
                                                    PM    PM    PM    PM       

     e|----------------------------------------|----------------x3---------------|
     b|----------------------------------------|-------------------------4-4-4-4-|
 GTR G|-10-10-10-10-10-14-14-14-14-14-14-14-14-|-------------------------7-7-7-7-|
  1  D|-10-10-10-10-10-14-14-14-14-14-14-14-14-|-1p0---1p0---1p0---1p0-----------| 4
     A|-8--8--8--8--8--12-12-12-12-12-12-12-12-|-1p0-0-1p0-0-1p0-0-1p0-0---------|
     D|-8--8--8--8--8--12-12-12-12-12-12-12-12-|-1p0-0-1p0-0-1p0-0-1p0-0---------|
                                                    PM    PM    PM    PM   

     e|----------------------------------------|----------------x3---------------|
     b|----------------------------------------|---------------------------------|
 GTR G|-10-10-10-10-10-14-14-14-14-14-14-14-14-|-------------------------7-7-7-7-|
  1  D|-10-10-10-10-10-14-14-14-14-14-14-14-14-|-1p0---1p0---1p0---1p0---6-6-6-6-| 4
     A|-8--8--8--8--8--12-12-12-12-12-12-12-12-|-1p0-0-1p0-0-1p0-0-1p0-0-5-5-5-5-|
     D|-8--8--8--8--8--12-12-12-12-12-12-12-12-|-1p0-0-1p0-0-1p0-0-1p0-0---------|
                                                    PM    PM    PM    PM  

     e|-------------------------------|
     b|-------------------------------|
 GTR G|-------------------------------|
 1+2 D|-------------------------------|
     A|-1p0-0-1p0-0-1p0-0-1p0-0-0-0-0-|
     D|-1p0-0-1p0-0-1p0-0-1p0-0-0-0-0-|
           PM    PM    PM     P M P M

     e|-------------------------------|
     b|-------------------------------|
 GTR G|-------------------------------|
 1+2 D|-------------------------------| x4
     A|-0-1--0-4-3-0-1-0-1--0---------|
     D|-0-1--0-4-3-0-1-0-1--0-111-111-|
       PM    P M P M P M   PM P M P M

     e|-------------------------------------------|
     b|-------------------------------------------|
 GTR G|-------------------------------------------|
  1  D|-------------------------------------------| x4
     A|-------------------------------------1-1-1-|
     D|-0-1-0-3-1-0-4-3-1-0-1-3-0-1-0-3-1-0-1-1-1-|
        P M P M P M P M P M P M P M P M P M P MPM

     e|-----------------------------|
     b|-----------------------------|
 GTR G|-----------------------------|
  2  D|-----------------------------| x4
     A|-0-1--0-4-3-0-1-0-1--0-1-1-1-|
     D|-0-1--0-4-3-0-1-0-1--0-1-1-1-|
       PM    P M P M P M    P M P M

     e|--------------------------------------------------|
     b|-------------------------8------------------------|
 GTR G|-------------------------9------------------------|
  1  D|-7-----------------------10-----------------------|
     A|-7------------------------------------------------|
     D|-7------------------------------------------------|

     e|--------------------------------------------------|
     b|-8-8-8-8-8-8-8-8-8-8-8-8-8-8-8-8-8-8-8-8-8-8-8-8--|
 GTR G|-9-9-9-9-9-9-9-9-9-9-9-9-9-9-9-9-9-9-9-9-9-9-9-9--|
  2  D|-101010101010101010101010101010101010101010101010-|
     A|-7-7-7-7-7-7-7-7-7-7-7-7-7-7-7-7-7-7-7-7-7-7-7-7--|
     D|-7-7-7-7-7-7-7-7-7-7-7-7-7-7-7-7-7-7-7-7-7-7-7-7--|

     e|--------------------------------------------------|
     b|-------------------------5*-----------------------|
 GTR G|----------------------------------5*--------------|
  1  D|-3---------------------------------------5*-------|
     A|-3------------------------------------------------|
     D|-3------------------------------------------------|

     e|--------------------------------------------------|
     b|--------------------------------------------------|
 GTR G|-9-9-9-9-9-9-9-9-9-9-9-9-9-9-9-9-9-9-9-9-9-9-9-9--|
  2  D|-101010101010101010101010101010101010101010101010-|
     A|-8-8-8-8-8-8-8-8-8-8-8-8-8-8-8-8-8-8-8-8-8-8-8-8--|
     D|--------------------------------------------------|

--------------------------------------------------------------------------------------

     e|----------7-----------------------------------7-----------------------------|
     b|------8-----8----------8---7h8-8-8p7------8-----8----------8----------10----|
 GTR G|----7---7-----7------7---7--------------7---7-----7-------------------------|
  1  D|-10-------------10-------------------10------------10-9/10---10-10/12----12-|
     A|-------------------7--------------------------------------------------------|
     D|----------------------------------------------------------------------------|

     e|--------------------------------------------------|
     b|-8-8-8-8-8-8-8-8-8-8-8-8-8-8-8-8-8-8-8-8-8-8-8-8--|
 GTR G|-9-9-9-9-9-9-9-9-9-9-9-9-9-9-9-9-9-9-9-9-9-9-9-9--|
  2  D|-101010101010101010101010101010101010101010101010-|
     A|-7-7-7-7-7-7-7-7-7-7-7-7-7-7-7-7-7-7-7-7-7-7-7-7--|
     D|-7-7-7-7-7-7-7-7-7-7-7-7-7-7-7-7-7-7-7-7-7-7-7-7--|

     e|----------7----------------------------------7-----------------------------|
     b|------8-----8----------8---10p8---8------8-----8----------8----------10----|
 GTR G|----7---7-----7------7---7------7------7---7-----7-------------------------|
  1  D|-10-------------10------------------10------------10-9/10---10-10/12----12-|
     A|-------------------7-------------------------------------------------------|
     D|---------------------------------------------------------------------------|

     e|--------------------------------------------------|
     b|--------------------------------------------------|
 GTR G|-9-9-9-9-9-9-9-9-9-9-9-9-9-9-9-9-9-9-9-9-9-9-9-9--|
  2  D|-101010101010101010101010101010101010101010101010-|
     A|-8-8-8-8-8-8-8-8-8-8-8-8-8-8-8-8-8-8-8-8-8-8-8-8--|
     D|--------------------------------------------------|

play section x3, then....
--------------------------------------------------------------------------------------

     e|----------7-----------------------------------7-----------------------------|
     b|------8-----8----------8---7h8-8-8p7------8-----8----------8----------10----|
 GTR G|----7---7-----7------7---7--------------7---7-----7-------------------------|
  1  D|-10-------------10-------------------10------------10-9/10---10-10/12----12-|
     A|-------------------7--------------------------------------------------------|
     D|----------------------------------------------------------------------------|

     e|--------------------------------------------------|
     b|-8-8-8-8-8-8-8-8-8-8-8-8-8-8-8-8-8-8-8-8-8-8-8-8--|
 GTR G|-9-9-9-9-9-9-9-9-9-9-9-9-9-9-9-9-9-9-9-9-9-9-9-9--|
  2  D|-101010101010101010101010101010101010101010101010-|
     A|-7-7-7-7-7-7-7-7-7-7-7-7-7-7-7-7-7-7-7-7-7-7-7-7--|
     D|-7-7-7-7-7-7-7-7-7-7-7-7-7-7-7-7-7-7-7-7-7-7-7-7--|

     e|----------7----------------------------------7-------------------------|
     b|------8-----8----------8---10p8---8------8-----8--------8-10/12-10-----|
 GTR G|----7---7-----7------7---7------7------7---7-----7-----------------12--|
  1  D|-10-------------10------------------10-------------9/10----------------|
     A|-------------------7---------------------------------------------------|
     D|-----------------------------------------------------------------------|

     e|--------------------------------------------------|
     b|--------------------------------------------------|
 GTR G|-9-9-9-9-9-9-9-9-9-9-9-9-9-9-9-9-9-9-9-9-9-9-9-9--|
  2  D|-101010101010101010101010101010101010101010101010-|
     A|-8-8-8-8-8-8-8-8-8-8-8-8-8-8-8-8-8-8-8-8-8-8-8-8--|
     D|--------------------------------------------------|

     e|----------------------------|
     b|----------------------------|
 GTR G|----------------------------|
  1  D|-10--------------12---------|
     A|-----12--10----------0-0-0--|
     D|-------------12------0-0-0--|
                            P MPM

     e|--------------------------|
     b|--------------------------|
 GTR G|-9-------------12---------|
  2  D|----10--9----------0-0-0--|
     A|-----------10------0-0-0--|
                          P MPM

4/4

     e|-----------------------------------|
     b|-15---15-15-15---18-18-18-18-18----|
 GTR G|-18---18-18-18---21-21-21-21-21----|
 1+2 D|-----------------------------------| x1
     A|----0----------0-----------------0-|
     D|----0----------0-----------------0-|
          PM         PM                PM

10/4

     e|----------------------------|
     b|-15---15-15-15---18-18-18---|
 GTR G|-18---18-18-18---21-21-21---|
 1+2 D|----------------------------| x8
     A|----0----------0----------0-|
     D|----0----------0----------0-|
          PM         PM         PM

     e|--------------|
     b|--------------|
 GTR G|--------------|
 1+2 D|-0------------|
     A|-0-(Let ring)-|
     D|-0------------|
Tap to rate this tab
# A B C D E F G H I J K L M N O P Q R S T U V W X Y Z