Song name
# A B C D E F G H I J K L M N O P Q R S T U V W X Y Z

Reset - The End tab

Song: The End
Band: Reset
Album: No Limits
Label: 2112 Records
Written and Performed By: Reset
tabbed by: ultimatelefty

Here's another great song off of No Limits, and a fun one to learn.
The strumming patterns might not be correct in all places, but if you
listen to the song, you should be able to figure it out, the chords are
right at least! Please rate, comment, and enjoy!

-If I went to a Simple Plan concert and met Pierre Bouvier, 
I'd get him to sign my Reset CD


Intro:

e|------------------------------------------------------------|
B|------------------------------------------------------------|
G|-5----7-5-----5--10-9-7-5----5----7-5-----5--10-9-7-10--12--|
D|-5----7-5-----5--10-9-7-5----5----7-5-----5--10-9-7-10--12--|
A|-3----5-3-----3---8-7-5-3----3----5-3-----3---8-7-5--8--10--|
E|------------------------------------------------------------|

Verse:

e|------------------------------------------------------------------|
B|------------------------------------------------------------------|
G|------------------------------------------------10101010-1010-9-7-|
D|-10101010-10-10-10-10101010-10-10-10-8888-8-8-8-10101010-1010-9-7-|
A|-10101010-10-10-10-10101010-10-10-10-8888-8-8-8--8-8-8-8--8-8-7-5-|
E|--8-8-8-8--8--8--8--8-8-8-8--8--8--8-6666-6-6-6-------------------|x3

e|---------------------------------------------|
B|---------------------------------------------|
G|---------------------------------------------|
D|-10101010-10-10-10-10101010-10-10-10-8-8-88x-|
A|-10101010-10-10-10-10101010-10-10-10-8-8-88x-|
E|--8-8-8-8--8--8--8--8-8-8-8--8--8--8-6-6-66x-|

Chorus:

e|-------------------------------------------------------------------------|
B|-------------------------------------------------------------------------|
G|---------------------------------10-9-10-------------------1010101099997-|
D|-3-3-3-3-3-3-3-3-5-5-5-5-5-5-5-5-10-9-10-3-3-3-3-3-3-3-3-3-1010101099997-|
A|-3-3-3-3-3-3-3-3-5-5-5-5-5-5-5-5--8-7--8-3-3-3-3-3-3-3-3-3--8-8-8-877775-|
E|-1-1-1-1-1-1-1-1-3-3-3-3-3-3-3-3---------1-1-1-1-1-1-1-1-1---------------|
PM                   . . . . . . .           . . . . . . . .

e|----------------------------------------------------------------------------|
B|----------------------------------------------------------------------------|
G|----------------------------------------------------------------------------|
D|-7-7-7-7-7-7-5-5-5-5-5-5-3-3-3-3-3-3-5--10101010-10-10-10-10101010-10-10-10-|
A|-7-7-7-7-7-7-5-5-5-5-5-5-3-3-3-3-3-3-5--10101010-10-10-10-10101010-10-10-10-|
E|-5-5-5-5-5-5-3-3-3-3-3-3-1-1-1-1-1-1-3---8-8-8-8--8--8--8--8-8-8-8--8--8--8-|

e|-----------------------------------------------------------------------------|
B|-----------------------------------------------------------------------------|
G|-----------------------10101010-10-10-10-10101010-10-10-10-12121212-12-12-12-|
D|-8888-8-8-8-8888-8-8-8-10101010-10-10-10-10101010-10-10-10-12121212-12-12-12-|
A|-8888-8-8-8-8888-8-8-8--8-8-8-8--8--8--8--8-8-8-8--8--8--8-10101010-10-10-10-|
E|-6666-6-6-6-6666-6-6-6-------------------------------------------------------|

e|-----------------|
B|-----------------|
G|-10101010-999-7--|
D|-10101010-999-7--|
A|--8-8-8-8-777-5--|
E|-----------------|

Verse:

e|------------------------------------------------------------------|
B|------------------------------------------------------------------|
G|------------------------------------------------10101010-1010-9-7-|
D|-10101010-10-10-10-10101010-10-10-10-8888-8-8-8-10101010-1010-9-7-|
A|-10101010-10-10-10-10101010-10-10-10-8888-8-8-8--8-8-8-8--8-8-7-5-|
E|--8-8-8-8--8--8--8--8-8-8-8--8--8--8-6666-6-6-6-------------------|x3

e|---------------------------------------------|
B|---------------------------------------------|
G|---------------------------------------------|
D|-10101010-10-10-10-10101010-10-10-10-8-8-88x-|
A|-10101010-10-10-10-10101010-10-10-10-8-8-88x-|
E|--8-8-8-8--8--8--8--8-8-8-8--8--8--8-6-6-66x-|

Chorus:

e|-------------------------------------------------------------------------|
B|-------------------------------------------------------------------------|
G|---------------------------------10-9-10-------------------1010101099997-|
D|-3-3-3-3-3-3-3-3-5-5-5-5-5-5-5-5-10-9-10-3-3-3-3-3-3-3-3-3-1010101099997-|
A|-3-3-3-3-3-3-3-3-5-5-5-5-5-5-5-5--8-7--8-3-3-3-3-3-3-3-3-3--8-8-8-877775-|
E|-1-1-1-1-1-1-1-1-3-3-3-3-3-3-3-3---------1-1-1-1-1-1-1-1-1---------------|
PM                   . . . . . . .           . . . . . . . .

e|----------------------------------------------------------------------------|
B|----------------------------------------------------------------------------|
G|----------------------------------------------------------------------------|
D|-7-7-7-7-7-7-5-5-5-5-5-5-3-3-3-3-3-3-5--10101010-10-10-10-10101010-10-10-10-|
A|-7-7-7-7-7-7-5-5-5-5-5-5-3-3-3-3-3-3-5--10101010-10-10-10-10101010-10-10-10-|
E|-5-5-5-5-5-5-3-3-3-3-3-3-1-1-1-1-1-1-3---8-8-8-8--8--8--8--8-8-8-8--8--8--8-|

e|-----------------------------------------------------------------------------|
B|-----------------------------------------------------------------------------|
G|-----------------------10101010-10-10-10-10101010-10-10-10-12121212-12-12-12-|
D|-8888-8-8-8-8888-8-8-8-10101010-10-10-10-10101010-10-10-10-12121212-12-12-12-|
A|-8888-8-8-8-8888-8-8-8--8-8-8-8--8--8--8--8-8-8-8--8--8--8-10101010-10-10-10-|
E|-6666-6-6-6-6666-6-6-6-------------------------------------------------------|

e|----------------------------|
B|----------------------------|
G|-10101010-999-7-------------|
D|-10101010-999-7---10----10\-|
A|--8-8-8-8-777-5---10----10\-|
E|-------------------8-----8\-|

Lyrics:

Every time I see you
Your trying so hard
Selling a part of your soul
The clock on the wall
Says your not
Far from your goal
You'll just have to
Wait and see

Now it's not a
Question of time
You'll have to
Face your fear
Your hate, and fight
Till the end, the end
 
Every time I see you
Your trying so hard
Trying so hard
But no one cares
You'll hate to
Learn to trust
No one but yourself
And always believe

Now it's not a
Question of time
You'll have to
Face your fear
Your hate, and fight
Till the end, the end

************************************

| /   slide up
| \   slide down
| h   hammer-on
| p   pull-off
| ~   vibrato
| +   harmonic
| x   Mute note
| b   Bend
| pb  Pre-bend
| br  Bend release
| pbr Pre-bend release
| brb Bend release bend

************************************
Tap to rate this tab
# A B C D E F G H I J K L M N O P Q R S T U V W X Y Z