Song name
# A B C D E F G H I J K L M N O P Q R S T U V W X Y Z

Reuben - Good Luck tab

| /  Slide up
| h  Hammer-on
| p  Pull-off
| x  Muted
| .  PM

Intro.
eb|------------------------------------------------------|
Bb|------------------------------------------------------|
Gb|----------------------1-----------------------1-2-4---|
Db|-------1----------1h2-----2--2-------1--------2-4-6---|
Ab|---0h2-----2--2-0----------------0h2-----2--2-0-0-0---|
Eb|-0-----------------------------0----------------------|
                                                                1st Time  2nd Time
Verse                                           |         |
|----------------------------------------------|---------|---------|
|----------------------------------------------|---------|---------|
|----------------------1-----------------------|-1-2-4---|-1-2-1---|
|-------1----------1h2-----2--2-------1--------|-2-4-6---|-2-4-2---|  x2 (All)
|---0h2-----2--2-0----------------0h2-----2--2-|-0-0-0---|-0-0-0---| 
|-0-----------------------------0--------------|---------|---------|

Pre-Chorus 
|-0--------0--------0--------0-| |-0--------0--------0--------4-| 
|--0-4p0----0-4p0----0-4p0-----| |--0-4p0----0-4p0----0-4p0-----| 
|------------------------------| |------------------------------|
|------------------------------| |------------------------------|
|-4-----------------0----------| |-4-----------------0----------| 
|----------4-----------------0-| |----------4-----------------0-| 

|-4p0-------4p0-------4p0------7-| |----------0-------------------0----------| 
|-----4p0-------4p0-------4p0----| |----------0-------------------0----------| 
|--------------------------------| |-----6---(6)-------------9---(9)---------|
|--------------------------------| |-----4-------------------7---------------| 
|-4-------------------0--------7-| |-4-----------------4-7-----------------7-|
|-----------4--------------------| |-2-----------------2-5-----------------5-|

Chorus
|---------------------------------|    |---------------| 
|---------------------------------|    |---------------| 
|---------------------------------|    |---------------| 
|-7-7--/6-6-2-2-4-1-1--/1-1-------| x3 |-7-7--/6-6-2/4-| 
|-7-7-------------x-x-------2-2-0-|    |-7-7-----------| 
|-5-5-------------0-0-------------|    |-5-5-----------| 

Bridge - Same as Intro. - x1 
Verse 2 - Same as Verse - x1
Pre-Chorus - Same as Above - x1

Chorus 2
|---------------------------------|    |-----0-------0-------0-----------|
|---------------------------------|    |-----0-------0-------0-----------|
|---------------------------------|    |-----6-------6-------6-----------|
|-7-7--/6-6-2-2-4-1-1--/1-1-------| x3 |-4-4---4-4-4---4-4-4---4-4-4-4-6-|
|-7-7-------------x-x-------2-2-0-|    |-4-4---4-4-4---4-4-4---4-4-4-4-6-|
|-5-5-------------0-0-------------|    |-2-2---2-2-2---2-2-2---2-2-2-2-4-|



|---------------------------------|    
|---------------------------------|    
|---------------------------------|    
|-7-7--/6-6-2-2-4-1-1--/1-1-------|  x3 
|-7-7-------------x-x-------2-2-0-|
|-5-5-------------0-0-------------|

|-----0-------0-------0-------------------0-| 
|-----0-------0-------0-------------------0-| 
|-----6-------6-------6---------------9---9-| 
|-4-4---4-4-4---4-4-4---4-4-4-4-6-7---7-----| 
|-4-4---4-4-4---4-4-4---4-4-4-4-6-7---7-----| 
|-2-2---2-2-2---2-2-2---2-2-2-2-4-5---------| 

Outro.
|---------------------------------| 
|---------------------------------| 
|-----------------2-2-2-2-2-2-2-2-| 
|-2-2-2-2-2-2-2-2-2-2-2-2-2-2-2-2-|  x4 (Slowly Release PM Second Time) 
|-2-2-2-2-2-2-2-2-0-0-0-0-0-0-0-0-| 
|-0-0-0-0-0-0-0-0-----------------| 
  . . . . . . . . . . . . . . . .

|-0--0-0--0-0-0-0--0-0--0-0-0-0--0-0--0-0-0-0--0-0--0-0-0-|
|-0--0-0--0-0-0-0--0-0--0-0-0-0--0-0--0-0-0-0--0-0--0-0-0-|
|-1--1-1--1-1-1-2--2-2--2-2-2-1--1-1--1-1-1-2--2-2--2-2-2-|
|-2--2-2--2-2-2-2--2-2--2-2-2-2--2-2--2-2-2-2--2-2--2-2-2-|
|-2--2-2--2-2-2-0--0-0--0-0-0-2--2-2--2-2-2-0--0-0--0-0-0-|
|-0--0-0--0-0-0---------------0--0-0--0-0-0---------------|

|-0--0-0--0-0-0-0--0-0--0-0-0-0--0-0--0-0-0-0---| 
|-0--0-0--0-0-0-0--0-0--0-0-0-0--0-0--0-0-0-0---| 
|-1--1-1--1-1-1-2--2-2--2-2-2-6--6-6--6-6-6-7---| 
|-2--2-2--2-2-2-2--2-2--2-2-2-6--6-6--6-6-6-7---| 
|-2--2-2--2-2-2-0--0-0--0-0-0-4--4-4--4-4-4-5---| 
|-0--0-0--0-0-0---------------------------------|
Tap to rate this tab
# A B C D E F G H I J K L M N O P Q R S T U V W X Y Z