Guitaretab - guitar tabs
Song name
# A B C D E F G H I J K L M N O P Q R S T U V W X Y Z
Home / R / Reuben / Boy tab

Reuben - Boy tab

Had my guitar in drop d flat coz i was playing other reuben songs, so i
played this in drop d flat too. On reflection it could be played in drop d,
so just play 133 for the 1st chord rather than 224 etc. i think it sounds
pretty good, but any comments welcome, either by email
(buddhist_heaven@hotmail.com) or on here. Good luck tryin to play it, think
it's a wicked song, especially to finish off the album!


  verse1
  -------------------------------------------------------------------|
  -------------------------------------------------------------------|
  --4------3------6-------4------6----4--------4-----3---------------|
  --4------4------7-------2------6----2--------4-----4---------------|*2
  --2------2------5-------2------4----4--------2-----2---------------|
  ------------------------2------------------------------------------|
   "Oh, i am, i'm tired out, by life, drags me d o w n"
   "And all these thoughts that i'm swimming in, if feel like i could drown"

  bridge1
  -------------------------------------------------------------------------|
  -------------------------------------------------------------------------|
  -------------------------------------------------------------------------|
  ---14--------------------------------------------------------------------|
  ---14-----------------------13-------------------------------------------|
  ---11-----------------------9--------------------------------------------|
"Coz everything is moving too fast for me to see"

   -------------------------------------------------------------------------|
   -------------------------------------------------------------------------|
   ---------------------------------------------------4---------------------|
   --------9---------------------------------11-------2---------------------|
   --------9---------------------------------9--------2---------------------|
   --------9---------------------------------9--------2---------------------|
"And these arseholes try to make me something i don't wanna be"

                                              (start sturmming)
   -------------------------------------------------------------------------|
   -------------------------------------------------------------------------|
   ------4-------------------------------------4----------------------------|
   ------2-------------------------------------x----------------------------|
   ------4-------------------------------------4----------------------------|
   ------2-------------------------------------4----------------------------|
"And the best news i could hear all day is for you to say to me"

chorus1
   --------------------------------------------------------------------|
   --------------------------------------------------------------------|
   --4----------4-------------4-------------4--------------------------|
   --4----------2-------------2-------------x--------------------------|*2
   --2----------2-------------4-------------4--------------------------|
   -------------2-------------2-------------4--------------------------|
   "Boy, it's alright, it's alright, it's alright"
"And boy, it's alright, you'll be with me tonight"

    (stop stumming)    (let ring)
   ----------------------------------------------------|
   ----------------------------------------------------|
   ----------------------------------------------------|
   -5----7---2-----5----7------------------------------|
   -5----7---2-----5----7------------------------------|
   -5----7---2-----5----7------------------------------|
 "Ton i g h t,   ton i g h t"
[ Tab from: http://www.guitaretab.com/r/reuben/183422.html ]
verse2
 ----------------------------------------------------------------------|
 ----------------------------------------------------------------------|
 --4-----------3-------------6----4-----------6-----------4------4---3-|
 --4-----------4-------------7----2-----------6-----------2------4---4-|
 --2-----------2-------------5----2-----------4-----------4------2---2-|
 ---------------------------------2------------------------------------|
  "Wait, don't move, you are beautiful, and i know you'll always b e "

  --------------------------------------------|
  --------------------------------------------|
  ----4---------3------------6----4---------6-|
  ----4---------4------------7----2---------6-|
  ----2---------2------------5----2---------4-|
  --------------------------------2-----------|
"And oh, your eyes, they are open now, i've never felt more proud than when,

  -------------------------------------|
  ----------------2--------------------|
  -----------4-------------------4---3-|
  --------2----------------------4---4-|
  ---4---------------------------2---2-|
  -------------------------------------|
 the both of them are focused on m e "

 bridge2 (start strumming)
  -------------------------------------------------------------------------|
  -------------------------------------------------------------------------|
  -------------------------------------------------------------------------|
  ---14--------------------------------------------------------------------|
  ---14-----------------------13-------------------------------------------|
  ---11-----------------------9--------------------------------------------|
"Buteverything is moving too fast for me to see"

   -------------------------------------------------------------------------|
   -------------------------------------------------------------------------|
   -------------------------------------------------------4-----------------|
   --------9----------------------------------------------2-----------------|
   --------9----------------------------------------------2-----------------|
   --------9----------------------------------------------2-----------------|
"And these arseholes try to make me something i could never be"

   -------------------------------------------------------------------------|
   -------------------------------------------------------------------------|
   ------4-------------------------------------4----------------------------|
   ------2-------------------------------------x----------------------------|
   ------4-------------------------------------4----------------------------|
   ------2-------------------------------------4----------------------------|
"And the best news i could hear all day is for you to say to me"


chorus2
   --------------------------------------------------------------------|
   --------------------------------------------------------------------|
   --4----------4-------------4-------------4--------------------------|
   --4----------2-------------2-------------x--------------------------|*4
   --2----------2-------------4-------------4--------------------------|
   -------------2-------------2-------------4--------------------------|
   "Boy, it's alright, it's alright, it's alright"
"And boy, it's alright, you'll be with me tonight"
"Yeah boy, it's alright, you're my life, you're my life"
"And boy, it's alright, i'll dream of you tonight"


    (stop stumming)    (let ring)
   ----------------------------------------------------|
   ----------------------------------------------------|
   ----------------------------------------------------|
   -5----7---2-----5----7------------------------------|
   -5----7---2-----5----7------------------------------|
   -5----7---2-----5----7------------------------------|
 "Ton i g h t,   ton i g h t"
Related for Boy tab
Advertisement will be closed in 10 seconds