Song name
# A B C D E F G H I J K L M N O P Q R S T U V W X Y Z

Reuben - Every Time A Teenager Listens To Drum And Bass A Rockstar Dies tab

Help us improve GuitareTab! Take a short survey!
#----------------------------------PLEASE NOTE---------------------------------#
#This file is the author's own work and represents their interpretation of the-#
#song. You may only use this file for private study, scholarship, or research.-#
#---This tab was created using Tabber software from www.darkdayssoftware.com---#
#------------------------------------------------------------------------------#


Title: Every Time a Teenager Listens To Drum and Bass a Rockstar Dies
Artist: Reuben
Album: Very Fast Very Dangerous

Instrument: 6 String Guitar

Tabbed by: Josh Seldis (jseldis@hotmail.co.uk)

Notes:
I can't find any tabs for this on the internet so i thought i'd have a crack.
Feel free to make suggestions.


REUBEN - EVERY TIME A TEENAGER LISTENS TO DRUM AND BASS A ROCKSTAR DIES

INTRO

Eb|-------------------------|-------------------------|
Bb|-------------------------|-------------------------|
Gb|-------------------------|-------------------------|
Db|0-0-101010-0-00-10101010-|0-0-101010-0-00-10101010-|
Ab|0-0-101010-0-00-10101010-|0-0-101010-0-00-10101010-|
Db|0-0-101010-0-00-10101010-|0-0-101010-0-00-10101010-|

Bb|-------------------------|-------------------------|
Gb|----111111------11111111-|----111111------11111111-|
Db|0-0-101010-0-00-10101010-|0-0-101010-0-00-10101010-|
Ab|0-0-101010-0-00-10101010-|0-0-101010-0-00-10101010-|
Db|0-0-101010-0-00-10101010-|0-0-101010-0-00-10101010-|

VERSE 1



Eb|-----------------|----------------||
Bb|-----------------|----------------||
Gb|-----------------|----------------||
Db|3/555555555555555|3333333333333333||
Ab|3/555555555555555|3333333333333333||
Db|3/555555555555555|3333333333333333||
   'Hello, friend...'

Eb|-------------------------|-------------------------|
Bb|-------------------------|-------------------------|
Gb|-------------------------|-------------------------|
Db|0-0-101010-0-00-10101010-|0-0-101010-0-00-10101010-|
Ab|0-0-101010-0-00-10101010-|0-0-101010-0-00-10101010-|
Db|0-0-101010-0-00-10101010-|0-0-101010-0-00-10101010-|

Eb|-----------------|----------------||
Bb|-----------------|----------------||
Gb|-----------------|----------------||
Db|3/555555555555555|3333333333333333||
Ab|3/555555555555555|3333333333333333||
Db|3/555555555555555|3333333333333333||
  'All the praise...'

Eb|-------------------------|-------------------------|
Bb|-------------------------|-------------------------|
Gb|-------------------------|-------------------------|
Db|0-0-101010-0-00-10101010-|0-0-101010-0-00-10101010-|
Ab|0-0-101010-0-00-10101010-|0-0-101010-0-00-10101010-|
Db|0-0-101010-0-00-10101010-|0-0-101010-0-00-10101010-|






Eb|---------------|----------------||
Bb|---------------|----------------||
Gb|---------------|----------------||
Db|555555555555555|3333333333333333||
Ab|555555555555555|3333333333333333||
Db|555555555555555|3333333333333333||
   'While we're at it...'

CHORUS

Eb|----------------|----------------||
Bb|----------------|----------------||
Gb|----------------|----------------||
Db|12------12------|----------------||
Ab|9-------10------|00000-----0000-0||
Db|9-------10------|00000-----0000-0||
                 PM .....     .... .
   'Have another drink'

Eb|----------------|----------------||
Bb|----------------|----------------||
Gb|----------------|----------------||
Db|12------12------|----------------||
Ab|9-------10------|000x0-----0000-0||
Db|9-------10------|000x0-----0000-0||
                 PM .....     .... .
  'Take your boxing gloves off'

Eb|----------------|-------------------||
Bb|----------------|-------------------||
Gb|----------------|-------------------||
Db|12------12------|-------------------||
Ab|9-------10------|000x0------------12||
Db|9-------10------|000x0----0101112-12||
                 PM ..... 
  'Tame that temper'


Eb|----------------------||
Bb|----------------------||
Gb|----------------------||
Db|---12--12------9-----7||
Ab|---9---8-------5-----3||
Db|---9---8-------5-----3||
     'Such a bother...'

VERSE 2

Eb|-------------------------|-------------------------|
Bb|-------------------------|-------------------------|
Gb|-------------------------|-------------------------|
Db|0-0-101010-0-00-10101010-|0-0-101010-0-00-10101010-|
Ab|0-0-101010-0-00-10101010-|0-0-101010-0-00-10101010-|
Db|0-0-101010-0-00-10101010-|0-0-101010-0-00-10101010-|


Eb|5----------------|3----------------||
Bb|8----------------|6----------------||
Gb|7----------------|5----------------||
Db|5----------------|3----------------||
Ab|5----------------|3----------------||
Db|5----------------|3----------------||
  'Hope he don't...'
Eb|-------------------------|-------------------------|
Bb|-------------------------|-------------------------|
Gb|-------------------------|-------------------------|
Db|0-0-101010-0-00-10101010-|0-0-101010-0-00-10101010-|
Ab|0-0-101010-0-00-10101010-|0-0-101010-0-00-10101010-|
Db|0-0-101010-0-00-10101010-|0-0-101010-0-00-10101010-|

Eb|-----------------|----------------||
Bb|-----------------|----------------||
Gb|-----------------|----------------||
Db|3/555555555555555|3333333333333333||
Ab|3/555555555555555|3333333333333333||
Db|3/555555555555555|3333333333333333||
  'I knew him when...'

Eb|-------------------------|-------------------------|
Bb|-------------------------|-------------------------|
Gb|-------------------------|-------------------------|
Db|0-0-101010-0-00-10101010-|0-0-101010-0-00-10101010-|
Ab|0-0-101010-0-00-10101010-|0-0-101010-0-00-10101010-|
Db|0-0-101010-0-00-10101010-|0-0-101010-0-00-10101010-|

Eb|-----------------|-----------------||
Bb|-----------------|-----------------||
Gb|7----------------|5----------------||
Db|5----------------|3----------------||
Ab|5----------------|3----------------||
Db|5----------------|3----------------||
  'Haven't spoke in years...'

CHORUS

Eb|----------------|----------------||
Bb|----------------|----------------||
Gb|----------------|----------------||
Db|12------12------|----------------||
Ab|9-------10------|00000-----0000-0||
Db|9-------10------|00000-----0000-0||
                 PM .....     .... .
   'Have another drink'

Eb|----------------|----------------||
Bb|----------------|----------------||
Gb|----------------|----------------||
Db|12------12------|----------------||
Ab|9-------10------|000x0-----0000-0||
Db|9-------10------|000x0-----0000-0||
                 PM .....     .... .
  'Take your boxing gloves off'

Eb|----------------|-------------------||
Bb|----------------|-------------------||
Gb|----------------|-------------------||
Db|12------12------|-------------------||
Ab|9-------10------|000x0------------12||
Db|9-------10------|000x0----0101112-12||
                 PM ..... 
  'Tame that temper'


Eb|----------------------||
Bb|----------------------||
Gb|----------------------||
Db|---12--12------9-----7||
Ab|---9---8-------5-----3||
Db|---9---8-------5-----3||
     'Such a bother...'


Eb|----------------|----------------||
Bb|----------------|----------------||
Gb|----------------|----------------||
Db|----------------|----------------||
Ab|0000000000000000|0000000000000000||
Db|0000000000000000|0000000000000000||
 PM................ ................
 'You're so pretty and i'm so stupid'

BRIDGE



Eb|-------------------------------------|-----------------------------------|
Bb|-------------------------------------|-----------------------------------|
Gb|-------------------------------------|-----------------------------------|
Db|--------7------7-------7-------------|----7-------7------7-------11h12h14|
Ab|----4-4-----5-5----7-7---------5p4---|4-4-----5-5-----7-7----9-9---------|
Db|16\-4-4---4/5-5--5/7-7---7/9-9----h7-|4-4---4/5-5---5/7-7--7/9-9---------|

Eb|-------------------------------------|-----------------------10--|
Bb|-------------------------------------|-----------------------12--|
Gb|--------7------7-------7-------------|----7-------7------7---x---|
Db|--------7------7-------7-------------|----7-------7------7---9---|
Ab|----4-4-----5-5----7-7---------5p4---|4-4-----5-5-----7-7----9---|
Db|16\-4-4---4/5-5--5/7-7---7/9-9----h7-|4-4---4/5-5---5/7-7--7/9---|


Eb|------9--------9|------9---------10--||
Bb|10-10--10-10-10-|10-10--10-12-12---12||
Gb|----------------|--------------------||
Db|----------------|--------------------||
Ab|----------------|--------------------||
Db|----------------|--------------------||
  'For all this madness'

Eb|------9--------9|------9---------10--||
Bb|10-10--10-10-10-|10-10--10-12-12---12||
Gb|----------------|--------------------||
Db|----------------|--------------------||
Ab|----------------|--------------------||
Db|----------------|--------------------||
  'I had a plan'

Eb|------9--------9|------9---------10--||
Bb|10-10--10-10-10-|10-10--10-12-12---12||
Gb|----------------|--------------------||
Db|----------------|--------------------||
Ab|----------------|--------------------||
Db|----------------|--------------------||
  'I dreamed i would buy us'

Eb|------9--------9|------9---------10--||
Bb|10-10--10-10-10-|10-10--10-12-12---12||
Gb|----------------|--------------------||
Db|----------------|--------------------||
Ab|----------------|--------------------||
Db|----------------|--------------------||
   'A plot of land'


Eb|--------------------------------||
Bb|--------------------------------||
Gb|--------------------------------||
Db|7-7--7-77-7--7-77-7--7-712-12-12||     X 6
Ab|4-4--4-45-5--5-57-7--7-79--9--9-||
Db|4-4--4-45-5--5-57-7--7-79--9--9-||
  'You and me can rest our bones, a place where we can both call home'

Eb|---------||
Bb|---------||
Gb|666x666x-||
Db|777x777x-|| X 3
Ab|777x777x-||
Db|444x444x-||

[BASS LINE]

OUTRO

Eb|----------------||
Bb|----------------||
Gb|-2/4/6h7--------||  x  4
Db|----------------||
Ab|----------------||
Db|----------------||
'You and me...'

Related for Every Time A Teenager Listens To Drum And Bass A Rockstar Dies tab