Guitaretab - guitar tabs
Song name
# A B C D E F G H I J K L M N O P Q R S T U V W X Y Z

Rev Theory - Voices tab

Song: Voices
Band: Rev Theory
Album: Voices: WWE The Music Volume 9

guys, this tab isnt that great, i tried my best, so dont get pissed off at me, here you go

I Hear Voices In My Head, 
They Talk To Me They Understand,
They Talk To Me!

e|14~-12-11-12--14-12----------13~~~12~---------------------|
B|--------------------14-12-14---------12~--12-14--12----12~|
G|----------------------------------------------------15----|
D|----------------------------------------------------------| 
A|----------------------------------------------------------|
D|----------------------------------------------------------|


e|---------------------------------|
B|---------------------------------|
G|---------------------------------|
D|---------------------------------| 
A|---------------------------------|
D|---------------------------------|
* ^ there are no tabs for the first half of the chorus
You got your rules and your religion
All designed to keep you safe
But when rules start getting broken
You start questioning your faith


e|---------------------------------|
B|---------------------------------|
G|---------------------------------|
D|---------------------------------| 
A|-----4-----4-----4-----4---------|
D|-----2-----2-----2-----2---------|
* for each line, of this part, play the chords

I have a voice that is my savior
Hates to love and loves to hate
I have the voice that has the knowledge
And the power to rule your fate

e|--------------------|
B|--------------------|
G|--------------------|
D|--------------------| X4
A|-4-4----------------|
D|-2-2--0-2-3---------|
   ^I hear voices crying
I see heroes dying
I taste the blood that's drying
I feel the tension rising
[ Tab from: http://www.guitaretab.com/r/rev-theory/176135.html ]
e|---------------------------------|
B|---------------------------------|
G|---------------------------------|
D|---------------------------------| 
A|---7-------5---------------------|
D|--------7--------5--------7------|
   ^ I hear voices in my head
The council me
They understand
they talk to me
they talk to me
they tell me things that i will do
they show me things that ill do to you
they talk to me

e|---------------------------------|
B|---------------------------------|
G|---------------------------------|
D|---------------------------------| 
A|---------------------------------|
D|---------------------------------|
    ^All the lawyers are defenseless
All the doctors are disease
And the preachers all are sinners
And the police just take the grease
e|---------------------------------|
B|---------------------------------|
G|---------------------------------|
D|---------------------------------| 
A|-----4-----4-----4-----4---------|
D|-----2-----2-----2-----2---------|
All you judges you are guilty
All the bosses I will fire
All you bankers will have losses
And politicians are all liars

e|--------------------|
B|--------------------|
G|--------------------|
D|--------------------| X4
A|-4-4----------------|
D|-2-2--0-2-3---------|
I see darkness falling
I hear voices calling
I feel justice crawling
I see faith has fallen

e|---------------------------------|
B|---------------------------------|
G|---------------------------------|
D|---------------------------------| 
A|---7-------5---------------------|
D|--------7--------5--------7------|
   ^ I hear voices in my head
The council me
They understand
they talk to me
they talk to me
they tell me things that i will do
they show me things that ill do to you
they talk to me

and thats all i know, more coming 
soon!
Related for Voices tab
Advertisement will be closed in 10 seconds