Song name
# A B C D E F G H I J K L M N O P Q R S T U V W X Y Z

Rev Theory - Light It Up tab

Light It Up
Rev Theory
Light It Up (2008)

Light It Up: written by Rich Luzzi, Julien Jorgensen, Rikki Lixx, 
Matt McCloskey, and Dave Agoglia

NOTE: I do not know the bridge or outro solo, so those spots are blank.
Another thing is, you'll notice by listening to the song that there may be
three guitars, two throughout the entire song, and one for the solos, so I
tabbed for two, and each does a solo.

GTR I - Drop C Tuning (d,A,F,C,G,C)
GTR II - Drop C Tuning (d,A,F,C,G,C)

Intro
  GTR I (Light Distortion)
d|-----------------------------------------------------|
A|-----3---3-----3-----3---3-----3---3-----3-----3---3-|
F|---2-------2-----2-----------2-------2-----2---------|
C|-0---------------------0---0---------------------0---|
G|-------------3-----2-------------------3-----2-------|
C|-------3-------------------------3-------------------|
 |
 |GTR II (Distortion)
d|-----------------------------------------------------|
A|-----------------------------------------------------|
F|-----------------------------------------------------|
C|-------------------------------------------------3-2-|
G|-------------------------------------------------3-2-|
C|-------------------------------------------------3-2-|

  GTR I (Light Distortion)
d|-----------------------------------------------------|--------------|
A|-----3---3-----3-----3---3-----3---3-----------------|--------------|
F|---2-------2-----2-----------2-------2---------------|--------------|
C|-0---------------------0---0-------------------------|--------------|
G|-------------3-----2-------------------3-------------|--------------|
C|-------3-------------------------3-------------------|--------------|
 |
 |GTR II (Distortion)
d|-----------------------------------------------------|--------------|
A|-----------------------------------------------------|--------------|
F|-----------------------------------------------------|--------------|
C|-0---------------------------------------------------|-5-3-0-3-5--5-|
G|-0-----------------------------------------------fbk-|-5-3-0-3-5--5-|
C|-0---------------------------------------------------|-5-3-0-3-5--5-|

  GTR I (Distortion)
d|------------------------------------------------------|
A|------------------------------------------------------|
F|------------------------------------------------------|
C|------------------------------------------------------|
G|-fbk--------------------------------------------------|
C|------------------------------------------------------|
 |
 |GTR II
d|------------------------------------------------------|
A|------------------------------------------------------|
F|--------------------------------------------1-------0-|
C|-0x-6-5-0-3-5-0x-6-5-0-3-5-0x-6-5-0-3-5-2-2---2-1-1---|
G|-0x-6-5-0-3-5-0x-6-5-0-3-5-0x-6-5-0-3-5-2-2---2-1-1---|
C|-0x-6-5-0-3-5-0x-6-5-0-3-5-0x-6-5-0-3-5-2-2---2-1-1---|

  GTR I
d|------------------------------------------------------|
A|------------------------------------------------------|
F|--------------------------------------------1-------0-|
C|-0x-6-5-0-3-5-0x-6-5-0-3-5-0x-6-5-0-3-5-2-2---2-1-1---|
G|-0x-6-5-0-3-5-0x-6-5-0-3-5-0x-6-5-0-3-5-2-2---2-1-1---|
C|-0x-6-5-0-3-5-0x-6-5-0-3-5-0x-6-5-0-3-5-2-2---2-1-1---|
 |
 |GTR II
d|------------------------------------------------------|
A|------------------------------------------------------|
F|--------------------------------------------1-------0-|
C|-0x-6-5-0-3-5-0x-6-5-0-3-5-0x-6-5-0-3-5-2-2---2-1-1---|
G|-0x-6-5-0-3-5-0x-6-5-0-3-5-0x-6-5-0-3-5-2-2---2-1-1---|
C|-0x-6-5-0-3-5-0x-6-5-0-3-5-0x-6-5-0-3-5-2-2---2-1-1---|

Verse
  GTR I                                                2x
d|------------------------------------------------------|
A|------------------------------------------------------|
F|------------------------------------------------------|
C|------------------------------------------------------|
G|------------------------------------------------------|
C|------------------------------------------------------|
 |
 |GTR II
d|------------------------------------------------------|
A|------------------------------------------------------|
F|--------------------------------------------1-------0-|
C|------------------------------------------------------|
G|------------------------------------------------------|
C|-0x-6-5-0-3-5-0x-6-5-0-3-5-0x-6-5-0-3-5-2-2---2-1-1---|

  GTR I                                                2x
d|------------------------------------------------------|
A|------------------------------------------------------|
F|------------------------------------------------------|
C|------------------------------------------------------|
G|------------------------------------------------------|
C|------------------------------------------------------|
 |
 |GTR II
d|------------------------------------------------------|
A|------------------------------------------------------|
F|--------------------------------------------1-------0-|
C|-0x-6-5-0-3-5-0x-6-5-0-3-5-0x-6-5-0-3-5-2-2---2-1-1---|
G|-0x-6-5-0-3-5-0x-6-5-0-3-5-0x-6-5-0-3-5-2-2---2-1-1---|
C|-0x-6-5-0-3-5-0x-6-5-0-3-5-0x-6-5-0-3-5-2-2---2-1-1---|

Chorus
  GTR I (Light Distortion)
d|---------0---------------0---------------0---------------0-------|
A|---3-------3---3---3-------3---3---3-------3---3---3-------3---3-|
F|-----2-------2-------2-------2-------2-------2-------2-------2---|
C|-0-----0---------------0---------------0---------------0---------|
G|---------------------------------3---------------2---------------|
C|-----------------3-----------------------------------------------|
 |
 |GTR II (Distortion)
d|-----------------------------------------------------------------|
A|-3-3-3-3-3-3-3-3-------------------------------------------------|
F|-2-2-2-2-2-2-2-2-----------------5-5-5-5-5-5-5-5-----------------|
C|-0-0-0-0-0-0-0-0-3-3-3-3-3-3-3-3-5-5-5-5-5-5-5-5-5-5-5-5-5-5-5-5-|
G|-0-0-0-0-0-0-0-0-3-3-3-3-3-3-3-3-3-3-3-3-3-3-3-3-5-5-5-5-5-5-5-5-|
C|-0-0-0-0-0-0-0-0-3-3-3-3-3-3-3-3-----------------5-5-5-5-5-5-5-5-|

  GTR I
d|---------0---------------0---------------0---------------0-------|
A|---3-------3---3---3-------3---3---3-------3---3---3-------3---3-|
F|-----2-------2-------2-------2-------2-------2-------2-------2---|
C|-0-----0---------------0---------------0---------------0---------|
G|---------------------------------3---------------2---------------|
C|-----------------3-----------------------------------------------|
 |
 |GTR II
d|-----------------------------------------------------------------|
A|-3-3-3-3-3-3-3-3-------------------------------------------------|
F|-2-2-2-2-2-2-2-2-----------------5-5-5-5-5-5-5-5-----------------|
C|-0-0-0-0-0-0-0-0-3-3-3-3-3-3-3-3-5-5-5-5-5-5-5-5-5-5-5-5-5-5-5-5-|
G|-0-0-0-0-0-0-0-0-3-3-3-3-3-3-3-3-3-3-3-3-3-3-3-3-5-5-5-5-5-5-5-5-|
C|-0-0-0-0-0-0-0-0-3-3-3-3-3-3-3-3-----------------5-5-5-5-5-5-5-5-|

Post Chorus
  GTR I          (Distortion)
d|--------------|------------------------------------------------------|
A|--------------|------------------------------------------------------|
F|--------------|--------------------------------------------1-------0-|
C|--------------|-0x-6-5-0-3-5-0x-6-5-0-3-5-0x-6-5-0-3-5-2-2---2-1-1---|
G|-----fbk------|-0x-6-5-0-3-5-0x-6-5-0-3-5-0x-6-5-0-3-5-2-2---2-1-1---|
C|--------------|-0x-6-5-0-3-5-0x-6-5-0-3-5-0x-6-5-0-3-5-2-2---2-1-1---|
 |
 |GTR II
d|--------------|------------------------------------------------------|
A|--------------|------------------------------------------------------|
F|--------------|--------------------------------------------1-------0-|
C|-5-3-0-3-5--5-|-0x-6-5-0-3-5-0x-6-5-0-3-5-0x-6-5-0-3-5-2-2---2-1-1---|
G|-5-3-0-3-5--5-|-0x-6-5-0-3-5-0x-6-5-0-3-5-0x-6-5-0-3-5-2-2---2-1-1---|
C|-5-3-0-3-5--5-|-0x-6-5-0-3-5-0x-6-5-0-3-5-0x-6-5-0-3-5-2-2---2-1-1---|

Verse
  GTR I (Light Distortion/wah)                         2x
d|------------------------------------------------------|
A|------------------------------------------------------|
F|-12~~~~~~~--------------------------------------------|
C|------------------------------------------------------|
G|------------------------------------------------------|
C|------------------------------------------------------|
 |
 |GTR II
d|------------------------------------------------------|
A|------------------------------------------------------|
F|--------------------------------------------1-------0-|
C|------------------------------------------------------|
G|------------------------------------------------------|
C|-0x-6-5-0-3-5-0x-6-5-0-3-5-0x-6-5-0-3-5-2-2---2-1-1---|

  GTR I                                                2x
d|----------------------------------------------------0-|
A|--------------------------------------------3---------|
F|-12~~~~~~~--------------------------------2---2---2---|
C|----------------------------------------0-------------|
G|------------------------------------------------------|
C|------------------------------------------------3-----|
 |
 |GTR II
d|------------------------------------------------------|
A|------------------------------------------------------|
F|--------------------------------------------1-------0-|
C|-0x-6-5-0-3-5-0x-6-5-0-3-5-0x-6-5-0-3-5-2-2---2-1-1---|
G|-0x-6-5-0-3-5-0x-6-5-0-3-5-0x-6-5-0-3-5-2-2---2-1-1---|
C|-0x-6-5-0-3-5-0x-6-5-0-3-5-0x-6-5-0-3-5-2-2---2-1-1---|

Chorus 2
  GTR I (Light Distortion)
d|---------0---------------0---------------0---------------0-------|
A|---3-------3---3---3-------3---3---3-------3---3---3-------3---3-|
F|-----2-------2-------2-------2-------2-------2-------2-------2---|
C|-0-----0---------------0---------------0---------------0---------|
G|---------------------------------3---------------2---------------|
C|-----------------3-----------------------------------------------|
 |
 |GTR II (Distortion)
d|-----------------------------------------------------------------|
A|-3-3-3-3-3-3-3-3-------------------------------------------------|
F|-2-2-2-2-2-2-2-2-----------------5-5-5-5-5-5-5-5-----------------|
C|-0-0-0-0-0-0-0-0-3-3-3-3-3-3-3-3-5-5-5-5-5-5-5-5-5-5-5-5-5-5-5-5-|
G|-0-0-0-0-0-0-0-0-3-3-3-3-3-3-3-3-3-3-3-3-3-3-3-3-5-5-5-5-5-5-5-5-|
C|-0-0-0-0-0-0-0-0-3-3-3-3-3-3-3-3-----------------5-5-5-5-5-5-5-5-|

  GTR I
d|---------0---------------0---------------0---------------0-------|
A|---3-------3---3---3-------3---3---3-------3---3---3-------3---3-|
F|-----2-------2-------2-------2-------2-------2-------2-------2---|
C|-0-----0---------------0---------------0---------------0---------|
G|---------------------------------3---------------2---------------|
C|-----------------3-----------------------------------------------|
 |
 |GTR II
d|-----------------------------------------------------------------|
A|-3-3-3-3-3-3-3-3-------------------------------------------------|
F|-2-2-2-2-2-2-2-2-----------------5-5-5-5-5-5-5-5-----------------|
C|-0-0-0-0-0-0-0-0-3-3-3-3-3-3-3-3-5-5-5-5-5-5-5-5-5-5-5-5-5-5-5-5-|
G|-0-0-0-0-0-0-0-0-3-3-3-3-3-3-3-3-3-3-3-3-3-3-3-3-5-5-5-5-5-5-5-5-|
C|-0-0-0-0-0-0-0-0-3-3-3-3-3-3-3-3-----------------5-5-5-5-5-5-5-5-|

  GTR I
d|---------0---------------0---------------0---------------0-------|
A|---3-------3---3---3-------3---3---3-------3---3---3-------3---3-|
F|-----2-------2-------2-------2-------2-------2-------2-------2---|
C|-0-----0---------------0---------------0---------------0---------|
G|---------------------------------3---------------2---------------|
C|-----------------3-----------------------------------------------|
 |
 |GTR II
d|-----------------------------------------------------------------|
A|-3-3-3-3-3-3-3-3-------------------------------------------------|
F|-2-2-2-2-2-2-2-2-----------------5-5-5-5-5-5-5-5-----------------|
C|-0-0-0-0-0-0-0-0-3-3-3-3-3-3-3-3-5-5-5-5-5-5-5-5-5-5-5-5-5-5-5-5-|
G|-0-0-0-0-0-0-0-0-3-3-3-3-3-3-3-3-3-3-3-3-3-3-3-3-5-5-5-5-5-5-5-5-|
C|-0-0-0-0-0-0-0-0-3-3-3-3-3-3-3-3-----------------5-5-5-5-5-5-5-5-|

Bridge
  GTR I (Distortion)
d|--------------------------------------------------------------------------|
A|--------------------------------------------------------------------------|
F|--------------------------------------------------------------------------|
C|-5-5-3-5-5-3-5------5-5-3-5-5-3-5------5-5-3-5-5-3-5------7-7-7-7-7-7-7-7-|
G|-5-5-3-5-5-3-5------5-5-3-5-5-3-5------5-5-3-5-5-3-5------7-7-7-7-7-7-7-7-|
C|-5-5-3-5-5-3-5------5-5-3-5-5-3-5------5-5-3-5-5-3-5------7-7-7-7-7-7-7-7-|
 |                                                          . . . . . . . .
 |GTR II
d|--------------------------------------------------------------------------|
A|--------------------------------------------------------------------------|
F|--------------------------------------------------------------------------|
C|-5-5-3-5-5-3--------5-5-3-5-5-3--------5-5-3-5-5-3--------7-7-7-7-7-7-7-7-|
G|-5-5-3-5-5-3--------5-5-3-5-5-3--------5-5-3-5-5-3--------7-7-7-7-7-7-7-7-|
C|-5-5-3-5-5-3-5b-(7)-5-5-3-5-5-3-5b-(7)-5-5-3-5-5-3-5b-(7)-7-7-7-7-7-7-7-7-|
                                                            . . . . . . . .
  GTR I
d|-------------------------|
A|-------------------------|
F|-------------------------|
C|-10-10-10-10-10-10-10-10-|
G|-10-10-10-10-10-10-10-10-|
C|-10-10-10-10-10-10-10-10-|
 |  .  .  .  .  .  .  .  .
 |GTR II
d|-------------------------|
A|-------------------------|
F|-------------------------|
C|-10-10-10-10-10-10-10-10-|
G|-10-10-10-10-10-10-10-10-|
C|-10-10-10-10-10-10-10-10-|
    .  .  .  .  .  .  .  .

Guitar Solo 
   GTR I
d|------------------------------------------------------|
A|------------------------------------------------------|
F|--------------------------------------------1-------0-|
C|-0x-6-5-0-3-5-0x-6-5-0-3-5-0x-6-5-0-3-5-2-2---2-1-1---|
G|-0x-6-5-0-3-5-0x-6-5-0-3-5-0x-6-5-0-3-5-2-2---2-1-1---|
C|-0x-6-5-0-3-5-0x-6-5-0-3-5-0x-6-5-0-3-5-2-2---2-1-1---|
 |
 |GTR II
d|------------------------------------------------------|
A|------------------------------------------------------|
F|------------------------------------------------------|
C|------------------------------------------------------|
G|------------------------------------------------------|
C|------------------------------------------------------|

  GTR I
d|------------------------------------------------------|
A|------------------------------------------------------|
F|--------------------------------------------1-------0-|
C|-0x-6-5-0-3-5-0x-6-5-0-3-5-0x-6-5-0-3-5-2-2---2-1-1---|
G|-0x-6-5-0-3-5-0x-6-5-0-3-5-0x-6-5-0-3-5-2-2---2-1-1---|
C|-0x-6-5-0-3-5-0x-6-5-0-3-5-0x-6-5-0-3-5-2-2---2-1-1---|
 |
 |GTR II
d|------------------------------------------------------|
A|------------------------------------------------------|
F|------------------------------------------------------|
C|------------------------------------------------------|
G|------------------------------------------------------|
C|------------------------------------------------------|

Intro
  GTR I (Light Distortion)
d|-----------------------------------------------------|
A|-----3---3-----3-----3---3-----3---3-----3-----3---3-|
F|---2-------2-----2-----------2-------2-----2---------|
C|-0---------------------0---0---------------------0---|
G|-------------3-----2-------------------3-----2-------|
C|-------3-------------------------3-------------------|
 |
 |GTR II (Distortion)
d|-----------------------------------------------------|
A|-----------------------------------------------------|
F|-----------------------------------------------------|
C|-------------------------------------------------3-2-|
G|-------------------------------------------------3-2-|
C|-------------------------------------------------3-2-|

  GTR I (Light Distortion)
d|-----------------------------------------------------|--------------|
A|-----3---3-----3-----3---3-----3---3-----------------|--------------|
F|---2-------2-----2-----------2-------2---------------|--------------|
C|-0---------------------0---0-------------------------|--------------|
G|-------------3-----2-------------------3-------------|--------------|
C|-------3-------------------------3-------------------|--------------|
 |
 |GTR II (Distortion)
d|-----------------------------------------------------|--------------|
A|-----------------------------------------------------|--------------|
F|-----------------------------------------------------|--------------|
C|-0---------------------------------------------------|-5-3-0-3-5--5-|
G|-0-----------------------------------------------fbk-|-5-3-0-3-5--5-|
C|-0---------------------------------------------------|-5-3-0-3-5--5-|

Chorus
  GTR I (Light Distortion)
d|---------0---------------0---------------0---------------0-------|
A|---3-------3---3---3-------3---3---3-------3---3---3-------3---3-|
F|-----2-------2-------2-------2-------2-------2-------2-------2---|
C|-0-----0---------------0---------------0---------------0---------|
G|---------------------------------3---------------2---------------|
C|-----------------3-----------------------------------------------|
 |
 |GTR II (Distortion)
d|-----------------------------------------------------------------|
A|-3-3-3-3-3-3-3-3-------------------------------------------------|
F|-2-2-2-2-2-2-2-2-----------------5-5-5-5-5-5-5-5-----------------|
C|-0-0-0-0-0-0-0-0-3-3-3-3-3-3-3-3-5-5-5-5-5-5-5-5-5-5-5-5-5-5-5-5-|
G|-0-0-0-0-0-0-0-0-3-3-3-3-3-3-3-3-3-3-3-3-3-3-3-3-5-5-5-5-5-5-5-5-|
C|-0-0-0-0-0-0-0-0-3-3-3-3-3-3-3-3-----------------5-5-5-5-5-5-5-5-|

  GTR I
d|---------0---------------0---------------0---------------0-------|
A|---3-------3---3---3-------3---3---3-------3---3---3-------3---3-|
F|-----2-------2-------2-------2-------2-------2-------2-------2---|
C|-0-----0---------------0---------------0---------------0---------|
G|---------------------------------3---------------2---------------|
C|-----------------3-----------------------------------------------|
 |
 |GTR II
d|-----------------------------------------------------------------|
A|-3-3-3-3-3-3-3-3-------------------------------------------------|
F|-2-2-2-2-2-2-2-2-----------------5-5-5-5-5-5-5-5-----------------|
C|-0-0-0-0-0-0-0-0-3-3-3-3-3-3-3-3-5-5-5-5-5-5-5-5-5-5-5-5-5-5-5-5-|
G|-0-0-0-0-0-0-0-0-3-3-3-3-3-3-3-3-3-3-3-3-3-3-3-3-5-5-5-5-5-5-5-5-|
C|-0-0-0-0-0-0-0-0-3-3-3-3-3-3-3-3-----------------5-5-5-5-5-5-5-5-|

  GTR I (Light Distortion)
d|---------0---------------0---------------0---------------0-------|
A|---3-------3---3---3-------3---3---3-------3---3---3-------3---3-|
F|-----2-------2-------2-------2-------2-------2-------2-------2---|
C|-0-----0---------------0---------------0---------------0---------|
G|---------------------------------3---------------2---------------|
C|-----------------3-----------------------------------------------|
 |
 |GTR II (Distortion)
d|-----------------------------------------------------------------|
A|-3-3-3-3-3-3-3-3-------------------------------------------------|
F|-2-2-2-2-2-2-2-2-----------------5-5-5-5-5-5-5-5-----------------|
C|-0-0-0-0-0-0-0-0-3-3-3-3-3-3-3-3-5-5-5-5-5-5-5-5-5-5-5-5-5-5-5-5-|
G|-0-0-0-0-0-0-0-0-3-3-3-3-3-3-3-3-3-3-3-3-3-3-3-3-5-5-5-5-5-5-5-5-|
C|-0-0-0-0-0-0-0-0-3-3-3-3-3-3-3-3-----------------5-5-5-5-5-5-5-5-|

  GTR I
d|---------0---------------0---------------0---------------0-------|
A|---3-------3---3---3-------3---3---3-------3---3---3-------3---3-|
F|-----2-------2-------2-------2-------2-------2-------2-------2---|
C|-0-----0---------------0---------------0---------------0---------|
G|---------------------------------3---------------2---------------|
C|-----------------3-----------------------------------------------|
 |
 |GTR II
d|-----------------------------------------------------------------|
A|-3-3-3-3-3-3-3-3-------------------------------------------------|
F|-2-2-2-2-2-2-2-2-----------------5-5-5-5-5-5-5-5-----------------|
C|-0-0-0-0-0-0-0-0-3-3-3-3-3-3-3-3-5-5-5-5-5-5-5-5-5-5-5-5-5-5-5-5-|
G|-0-0-0-0-0-0-0-0-3-3-3-3-3-3-3-3-3-3-3-3-3-3-3-3-5-5-5-5-5-5-5-5-|
C|-0-0-0-0-0-0-0-0-3-3-3-3-3-3-3-3-----------------5-5-5-5-5-5-5-5-|

Outro
  GTR I (Distortion)
d|-----------------------------------------------------------------|
A|-----------------------------------------------------------------| 
F|-----------------------------------------------------------------|
C|-----------------------------------------------------------------|
G|-----------------------------------------------------------------|
C|-----------------------------------------------------------------|
 |
 |GTR II (Distortion)
d|-----------------------------------------------------------------|
A|-3-3-3-3-3-3-3-3-------------------------------------------------|
F|-2-2-2-2-2-2-2-2-----------------5-5-5-5-5-5-5-5-----------------|
C|-0-0-0-0-0-0-0-0-3-3-3-3-3-3-3-3-5-5-5-5-5-5-5-5-5-5-5-5-5-5-5-5-|
G|-0-0-0-0-0-0-0-0-3-3-3-3-3-3-3-3-3-3-3-3-3-3-3-3-5-5-5-5-5-5-5-5-|
C|-0-0-0-0-0-0-0-0-3-3-3-3-3-3-3-3-----------------5-5-5-5-5-5-5-5-|

  GTR I
d|-----------------------------------------------------------------|
A|-----------------------------------------------------------------| 
F|-----------------------------------------------------------------|
C|-----------------------------------------------------------------|
G|-----------------------------------------------------------------|
C|-----------------------------------------------------------------|
 |
 |GTR II (Distortion)
d|-----------------------------------------------------------------|
A|-3-3-3-3-3-3-3-3-------------------------------------------------|
F|-2-2-2-2-2-2-2-2-----------------5-5-5-5-5-5-5-5-----------------|
C|-0-0-0-0-0-0-0-0-3-3-3-3-3-3-3-3-5-5-5-5-5-5-5-5-5---------------|
G|-0-0-0-0-0-0-0-0-3-3-3-3-3-3-3-3-3-3-3-3-3-3-3-3-5---------------|
C|-0-0-0-0-0-0-0-0-3-3-3-3-3-3-3-3-----------------5---------------|

  GTR I
d|----------------|
A|----------------|
F|----------------|
C|----------------|
G|----------------|
C|----------------|
 |
 |GTR II
d|----------------|
A|----------------|
F|----------------|
C|-5-3-0-3-5x-5-0-|
G|-5-3-0-3-5x-5-0-|
C|-5-3-0-3-5x-5-0-|

| .  palm-mute
|fbk feedback
| b  bend
| /  slide up
| \  slide down
| h  hammer-on
| p  pull-off
| ~  vibrato
| +  harmonic
| x  Mute note
===============================================================================
Tap to rate this tab
# A B C D E F G H I J K L M N O P Q R S T U V W X Y Z