Song name
# A B C D E F G H I J K L M N O P Q R S T U V W X Y Z

Revelation Theory - Deep Six tab

Song: Deep Six

Artist: Revelation Theory


Intro:

e|------------------------------------------------------------|
B|------------------------------------------------------------|
G|------------------------------------------------------------| x4
D|-0h2-2-2--0-0h2-2-2--0-0h2-0-0-0h2-2-2--2-2-2-2-5-5-5-5-2--0|
A|-0h2-2-2--0-0h2-2-2--0-0h2-0-0-0h2-2-2--2-2-2-2-5-5-5-5-2--0|
E|-0h2-2-2--0-0h2-2-2--0-0h2-0-0-0h2-2-2--2-2-2-2-5-5-5-5-2--0|
           PM         PM    PM PM


e|------------------------------------------------------------|
B|-5-5-5-5-5-5-5-5-5-5-5-5--3-3-3-3-3-3-3-3-3-3-3-3-----------|
G|------------------------------------------------------------| x2
D|------------------------------------------------------------|
A|------------------------------------------------------------|
E|------------------------------------------------------------|

Verse/Chorus:

e|------------------------------------------------------------|
B|------------------------------------------------------------|
G|------------------------------------------------------------|
D|-0-2--2-0-2--2-0-2--2-0-2--2-0-2--2-0-2--2-0-5-5-5-5-5-5----|
A|-0-2--2-0-2--2-0-2--2-0-2--2-0-2--2-0-2--2-0-5-5-5-5-5-5----|
E|-0-2--2-0-2--2-0-2--2-0-2--2-0-2--2-0-2--2-0-5-5-5-5-5-5----|

That's it.


Tap to rate this tab
# A B C D E F G H I J K L M N O P Q R S T U V W X Y Z