Song name
# A B C D E F G H I J K L M N O P Q R S T U V W X Y Z

Rich Robinson - Oh No tab

Artist: Rich Robinson
Song: Oh No
Album: Paper

This song was originally tabbed by Greg Schuchart.  I made some small changes.

Tuning: CFCFAC (Open F)

Intro:
C--------------------------------------|
A--1-1-1-1--1-1--0----1-1-1-1--1-1--0--|
F--0-0-0-0--0-0--0----0-0-0-0--0-0--0--|
C--0-0-0-0--0-0--0----0-0-0-0--0-0--0--|
F--3-3-3-3--3-3--0----2-2-2-2--2-2--0--|
C--------------------------------------|

C------------------------------|
A--1-1--1-1--0----1-1--1-1--0--|
F--0-0--0-0--0----0-0--0-0--0--| x4
C--0-0--0-0--0----0-0--0-0--0--|
F--3-3--3-3--0----2-2--2-2--0--|
C------------------------------|

Verse:
C----------------------------------------|
A--0-1-3-5-3-1-0-1-3-5-3-1-0h1-0--0h1-0--|
F--0-0-0-0-0-0-0-0-0-0-0-0-0---0--0---0--| x6
C--0-0-0-0-0-0-0-0-0-0-0-0-0h2-0--0---0--|
F--0-2-4-5-4-2-0-2-4-5-4-2--------0h2-0--|
C----------------------------------------|

Chorus:
C------------------------------------|
A--12-12-12-10-10-10-10-10-10-8-8-8--|
F------------------------------------| x4
C--12-12-12-11-11-11-10-10-10-9-9-9--|
F------------------------------------|
C------------------------------------|

C--0--
A--1--
F--0--
C--2--
F--0--
C-----

Outro:
C------------------------|
A--1-1--1--1-1-1--1/3-0--|
F--0-0--0--0-0-0--0---0--|
C--0-0--0--0-0-0--0---0--|
F--3-3--3--3-3-3--3/5-0--|
C------------------------|

C------------------------|
A--1-1--1--1-1-1--1/3-0--|
F--0-0--0--0-0-0--0---0--|
C--0-0--0--0-0-0--0---0--|
F--2-2--2--2-2-2--2/4-0--|
C------------------------|
Tap to rate this tab
# A B C D E F G H I J K L M N O P Q R S T U V W X Y Z