Song name
# A B C D E F G H I J K L M N O P Q R S T U V W X Y Z

Right Away Great Captain - Badges And Badges tab

Help us improve GuitareTab! Take a short survey!
drop d tuning

verse
e|-----------------------------------------------|
b|-----------------------------------------------|
g|-----------------------------------------------|
d|------0---0---0-----0---0---0---0---0---0---0--|
a|--0h2---0--------------------------------------|
e|------------2---2/5---5---5---5---5---5---5----|

at the end of each verse
e|---------------------------------------------|
b|---------------------------------------------|
g|---------------------------------------------|
d|------0---0---0---0---0---0---0---0---0---0--|
a|--0h2---0------------------------------------|
e|------------2---0---0---0---0---0---0---0----|

final verse
e|----------------------|
b|----------------------|
g|----------------------|
d|------0---0---0-------|
a|--0h2---0-------------|
e|------------2---2/5~--|

repeat everything as needed
feedback is much appreciated
Related for Badges And Badges tab