Song name
# A B C D E F G H I J K L M N O P Q R S T U V W X Y Z

Rikk Agnew - Falling Out tab

Tuning: Standard

| X - mute note
| h - hammer on
| b - bend note

This version of the song is off of Rikk's "All By Myself" album.


Guitar 1

Intro - same as chorus

Verse

e|------------------------------------------------------------------------|
B|------------------------------------------------------------------------|
G|--9-9-9-9-9-9-9-9-9-9-9-9-9-9-9-9---------------------------------------|
D|--9-9-9-9-9-9-9-9-9-9-9-9-9-9-9-9--9-9-9-9-9-9-9-9-9-9-9-9-9-9-9-9------|
A|--7-7-7-7-7-7-7-7-7-7-7-7-7-7-7-7--9-9-9-9-9-9-9-9-9-9-9-9-9-9-9-9------|
E|-----------------------------------7-7-7-7-7-7-7-7-7-7-7-7-7-7-7-7------|

   Everywhere I look around...       Everyone I know...

e|------------------------------------------------|
B|------------------------------------------------|
G|----------------------------------7-7-7-7-------|
D|--5--5-5-5-5-5-5--7--7-7-7-7-7-7--7-7-7-7-------|
A|--5--5-5-5-5-5-5--7--7-7-7-7-7-7--5-5-5-5-------|
E|--3--3-3-3-3-3-3--5--5-5-5-5-5-5----------------|

    No future       No time


Pre-chorus


e|----------------------------------------------|
B|----------------------------------------------|
G|--9-9-9-------12--12-12-12-12-----------------|
D|--9-9-9---9---12--12-12-12-12--12-12-12-------|
A|--7-7-7---9---10--10-10-10-10--12-12-12-------|
E|----------7--------------------10-10-10-------|

    Falling out

e|----------------------------------------------|
B|----------------------------------------------|
G|--9-9-9-------12--12-12-12-12-----------------|
D|--9-9-9---9---12--12-12-12-12--12-12-12-------|
A|--7-7-7---9---10--10-10-10-10--12-12-12-------|
E|----------7--------------------10-10-10-------|

    Falling out of line and into the dust

e|----------------------------------------------|
B|----------------------------------------------|
G|--9-9-9-------12--12-12-12-12-----------------|
D|--9-9-9---9---12--12-12-12-12--12-12-12-------|
A|--7-7-7---9---10--10-10-10-10--12-12-12-------|
E|----------7--------------------10-10-10-------|

    Falling out

e|----------------------------------------------|
B|----------------------------------------------|
G|--9-9-9-------12--12-12-12-12-----------------|
D|--9-9-9---9---12--12-12-12-12--12-12-12-------|
A|--7-7-7---9---10--10-10-10-10--12-12-12-------|
E|----------7--------------------10-10-10-------|

    Falling in the footsteps...

e|--------------------------------------------------------|
B|--------------------------------------------------------|
G|--12-12-12-12-12-12-12-12--11-11-11-11-11-11-11-11------|
D|--12-12-12-12-12-12-12-12--11-11-11-11-11-11-11-11------|
A|--10-10-10-10-10-10-10-10---9--9--9--9--9--9--9--9------|
E|--------------------------------------------------------|

e|----------------------------------------|
B|----------------------------------------|
G|--7-7-7-7-7-7-7-7--9-9-9-9-9-9-9-9------|
D|--7-7-7-7-7-7-7-7--9-9-9-9-9-9-9-9------|
A|--5-5-5-5-5-5-5-5--7-7-7-7-7-7-7-7------|
E|----------------------------------------|

e|----------------------------------------------------------------|
B|----------------------------------------------------------------|
G|--9-9-9-9-9-9-9-9--11-11-11-11-11-11-11-11--7-7-7-7-7-7-7-7-----|
D|--7-7-7-7-7-7-7-7---9--9--9--9--9--9--9--9--5-5-5-5-5-5-5-5-----|
A|--7-7-7-7-7-7-7-7---9--9--9--9--9--9--9--9--5-5-5-5-5-5-5-5-----|
E|----------------------------------------------------------------|


Chorus

e|-----------------------------------------------------------------------|
B|-----------------------------------------------------------------------|
G|--9-9-9-9-9-9-9-9-9-9-9-9-9-9-9-9--------------------------------------|
D|--9-9-9-9-9-9-9-9-9-9-9-9-9-9-9-9--9-9-9-9-9-9-9-9-9-9-9-9-9-9-9-9-----|
A|--7-7-7-7-7-7-7-7-7-7-7-7-7-7-7-7--9-9-9-9-9-9-9-9-9-9-9-9-9-9-9-9-----|
E|-----------------------------------7-7-7-7-7-7-7-7-7-7-7-7-7-7-7-7-----|

    Have a good time                 While there's still time

e|-----------------------------------------------------------------------|
B|-----------------------------------------------------------------------|
G|--7-7-7-7-7-7-7-7-7-7-7-7-7-7-7-7--------------------------------------|
D|--7-7-7-7-7-7-7-7-7-7-7-7-7-7-7-7--7-7-7-7-7-7-7-7-7-7-7-7-7-7-7-7-----|
A|--5-5-5-5-5-5-5-5-5-5-5-5-5-5-5-5--7-7-7-7-7-7-7-7-7-7-7-7-7-7-7-7-----|
E|-----------------------------------5-5-5-5-5-5-5-5-5-5-5-5-5-5-5-5-----|

    Guns are blaring                 Skies are flaring

e|-----------------------------------------------------------------------|
B|-----------------------------------------------------------------------|
G|--5-5-5-5-5-5-5-5-5-5-5-5-5-5-5-5--------------------------------------|
D|--5-5-5-5-5-5-5-5-5-5-5-5-5-5-5-5--5-5-5-5-5-5-5-5-5-5-5-5-5-5-5-5-----|
A|--3-3-3-3-3-3-3-3-3-3-3-3-3-3-3-3--5-5-5-5-5-5-5-5-5-5-5-5-5-5-5-5-----|
E|-----------------------------------3-3-3-3-3-3-3-3-3-3-3-3-3-3-3-3-----|

    When it's all done               There'll be no one


Guitar 2

Intro - same as chorus

Verse

e|------------------------------------------------------------------------|
B|------------------------------------------------------------------------|
G|--9-9-9-9-9-9-9-9-9-9-9-9-9-9-9-9---------------------------------------|
D|--9-9-9-9-9-9-9-9-9-9-9-9-9-9-9-9--9-9-9-9-9-9-9-9-9-9-9-9-9-9-9-9------|
A|--7-7-7-7-7-7-7-7-7-7-7-7-7-7-7-7--9-9-9-9-9-9-9-9-9-9-9-9-9-9-9-9------|
E|-----------------------------------7-7-7-7-7-7-7-7-7-7-7-7-7-7-7-7------|

   Everywhere I look around...       Everything I see...    

e|-----------------------------------------------|
B|-----------------------------------------------|
G|--9--9-9-9-9-9-9--4--4-4-4-4-4-4--7-7-7-7------|
D|--X--X-X-X-X-X-X--X--X-X-X-X-X-X--X-X-X-X------|
A|--7--7-7-7-7-7-7--2--2-2-2-2-2-2--5-5-5-5------|
E|-----------------------------------------------|

    No future       No time


Pre-chorus

e|----------------------------------------------|
B|----------------------------------------------|
G|--9-9-9-------12--12-12-12-12-----------------|
D|--9-9-9---9---12--12-12-12-12--12-12-12-------|
A|--7-7-7---9---10--10-10-10-10--12-12-12-------|
E|----------7--------------------10-10-10-------|

    Falling out

e|----------------------------------------------|
B|----------------------------------------------|
G|--9-9-9-------12--12-12-12-12-----------------|
D|--9-9-9---9---12--12-12-12-12--12-12-12-------|
A|--7-7-7---9---10--10-10-10-10--12-12-12-------|
E|----------7--------------------10-10-10-------|

    Falling out of line and into the dust

e|----------------------------------------------|
B|----------------------------------------------|
G|--9-9-9-------12--12-12-12-12-----------------|
D|--9-9-9---9---12--12-12-12-12--12-12-12-------|
A|--7-7-7---9---10--10-10-10-10--12-12-12-------|
E|----------7--------------------10-10-10-------|

    Falling out

e|----------------------------------------------|
B|----------------------------------------------|
G|--9-9-9-------12--12-12-12-12-----------------|
D|--9-9-9---9---12--12-12-12-12--12-12-12-------|
A|--7-7-7---9---10--10-10-10-10--12-12-12-------|
E|----------7--------------------10-10-10-------|

    Falling in the footsteps...

e|-----------------------------------------|
B|---8---12---10--10-10-10-10-10-10--------|
G|---X----X----X---X--X--X--X--X--X--------|
D|---5----9----7---7--7--7--7--7--7--------|
A|-----------------------------------------|
E|-----------------------------------------|

e|-----------------------------------------|
B|---10---12---10--10-10-10-10-10-10-------|
G|----X----X----X---X--X--X--X--X--X-------|
D|----7----9----7---7--7--7--7--7--7-------|
A|-----------------------------------------|
E|-----------------------------------------|

e|---------------------------------------------------|
B|--10--10-10--12--12-12--10---7---10--10-10-10------|
G|---X---X--X---X---X--X---X---X----X---X--X--X------|
D|---7---7--7---9---9--9---7---4----7---7--7--7------|
A|---------------------------------------------------|
E|---------------------------------------------------|


Chorus

e|------------------------------------------------------|
B|------------------------------------------------------|
G|--9-9-9-9--11-11-11-11--12-12-12-12--11-11-11-11------|
D|--X-X-X-X---X--X--X--X---X--X--X--X---X--X--X--X------|
A|--7-7-7-7---9--9--9--9--10-10-10-10---9--9--9--9------|
E|------------------------------------------------------|

    Have a good time

e|-----------------------------------------|
B|-----------------------------------------|
G|--9-9-9-9--7-7-7-7--4-4-4-4--7-7-7-7-----|
D|--X-X-X-X--X-X-X-X--X-X-X-X--X-X-X-X-----|
A|--7-7-7-7--5-5-5-5--2-2-2-2--5-5-5-5-----|
E|-----------------------------------------|

    While there's still time

e|------------------------------------------------------|
B|------------------------------------------------------|
G|--9-9-9-9--11-11-11-11--12-12-12-12--11-11-11-11------|
D|--X-X-X-X---X--X--X--X---X--X--X--X---X--X--X--X------|
A|--7-7-7-7---9--9--9--9--10-10-10-10---9--9--9--9------|
E|------------------------------------------------------|

    Guns are blaring

e|-----------------------------------------|
B|-----------------------------------------|
G|--9-9-9-9--7-7-7-7--4-4-4-4--7-7-7-7-----|
D|--X-X-X-X--X-X-X-X--X-X-X-X--X-X-X-X-----|
A|--7-7-7-7--5-5-5-5--2-2-2-2--5-5-5-5-----|
E|-----------------------------------------|

    Skies are flaring

e|------------------------------------------------------|
B|------------------------------------------------------|
G|--9-9-9-9--11-11-11-11--12-12-12-12--11-11-11-11------|
D|--X-X-X-X---X--X--X--X---X--X--X--X---X--X--X--X------|
A|--7-7-7-7---9--9--9--9--10-10-10-10---9--9--9--9------|
E|------------------------------------------------------|

    When it's all done

e|-----------------------------------------|
B|-----------------------------------------|
G|--9-9-9-9--7-7-7-7--4-4-4-4--7-7-7-7-----|
D|--X-X-X-X--X-X-X-X--X-X-X-X--X-X-X-X-----|
A|--7-7-7-7--5-5-5-5--2-2-2-2--5-5-5-5-----|
E|-----------------------------------------|

    There'll be no one


Solo

e|----------------------------------------|
B|---12---12--12--12--12--12--12--12------|
G|---14b----------------------------------|
D|----------------------------------------|
A|----------------------------------------|
E|----------------------------------------|

e|---12--15-14--12--14-12-----------------------|
B|----------------------------------------------|
G|-------------------------15-14--12--14-12-----|
D|----------------------------------------------|
A|----------------------------------------------|
E|----------------------------------------------|

e|-----------------------------------|
B|---12---12--12--12--12-------------|
G|---14b------------------14--12-----|
D|-----------------------------------|
A|-----------------------------------|
E|-----------------------------------|

e|--------------------------------------------------------------------|
B|--------------------------------------------------------------------|
G|-----------11h12h14----------11h12h14----------11h12h14-------------|
D|--11h12h14----------11h12h14----------11h12h14----------11h12h14----|
A|--------------------------------------------------------------------|
E|--------------------------------------------------------------------|

e|------17------15------14------12--12-----|
B|---17------15------14------12-----12-----|
G|-----------------------------------------|
D|-----------------------------------------|
A|-----------------------------------------|
E|-----------------------------------------|

e|-----------------------|
B|---12----14----15------|
G|---14b---16b---17b-----|
D|-----------------------|
A|-----------------------|
E|-----------------------|

e|----------------------------------------------------------|
B|----------------------------------------------------------|
G|--9--11--12--11--9--7--4--7--9--11--12--11--9--7--4--7----|
D|--X---X---X---X--X--X--X--X--X---X---X---X--X--X--X--X----|
A|--7---9--10---9--7--5--2--5--7---9--10---9--7--5--2--5----|
E|----------------------------------------------------------|

e|----------------------------------------------------------|
B|----------------------------------------------------------|
G|--9--11--12--11--9--7--4--7--9--11--12--11--9--7--4--7----|
D|--X---X---X---X--X--X--X--X--X---X---X---X--X--X--X--X----|
A|--7---9--10---9--7--5--2--5--7---9--10---9--7--5--2--5----|
E|----------------------------------------------------------|

e|------------------------------------------------------------|
B|------------------------------------------------------------|
G|--9--11--12--11--9--7--4--7--9--11--12--11--9--11--12--14---|
D|--X---X---X---X--X--X--X--X--X---X---X---X--X---X---X---X---|
A|--7---9--10---9--7--5--2--5--7---9--10---9--7---9--10--12---|
E|------------------------------------------------------------|

e|----------------------------------------------------|
B|--12-12-12-12-12-12-12-12-12-12-12-12-12-12-12-12---|
G|---X--X--X--X--X--X--X--X--X--X--X--X--X--X--X--X---|
D|---9--9--9--9--9--9--9--9--9--9--9--9--9--9--9--9---|
A|----------------------------------------------------|
E|----------------------------------------------------|

    People dying

e|----------------------------------------------------|
B|--12-12-12-12-12-12-12-12-12-12-12-12-12-12-12-12---|
G|---X--X--X--X--X--X--X--X--X--X--X--X--X--X--X--X---|
D|---9--9--9--9--9--9--9--9--9--9--9--9--9--9--9--9---|
A|----------------------------------------------------|
E|----------------------------------------------------|

    Mothers crying

e|----------------------------------------------------|
B|--12-12-12-12-12-12-12-12-12-12-12-12-12-12-12-12---|
G|---X--X--X--X--X--X--X--X--X--X--X--X--X--X--X--X---|
D|---9--9--9--9--9--9--9--9--9--9--9--9--9--9--9--9---|
A|----------------------------------------------------|
E|----------------------------------------------------|

    Last words spoken

e|----------------------------------------------------|
B|--12-12-12-12-12-12-12-12-12-12-12-12-12-12-12-12---|
G|---X--X--X--X--X--X--X--X--X--X--X--X--X--X--X--X---|
D|---9--9--9--9--9--9--9--9--9--9--9--9--9--9--9--9---|
A|----------------------------------------------------|
E|----------------------------------------------------|

    No one's jokin

e|----------------------------------------------------|
B|--12-12-12-12-12-12-12-12-12-12-12-12-12-12-12-12---|
G|---X--X--X--X--X--X--X--X--X--X--X--X--X--X--X--X---|
D|---9--9--9--9--9--9--9--9--9--9--9--9--9--9--9--9---|
A|----------------------------------------------------|
E|----------------------------------------------------|

    Close your eyes and...

e|----------------------------------------------------|
B|--12-12-12-12-12-12-12-12-12-12-12-12-12-12-12-12---|
G|---X--X--X--X--X--X--X--X--X--X--X--X--X--X--X--X---|
D|---9--9--9--9--9--9--9--9--9--9--9--9--9--9--9--9---|
A|----------------------------------------------------|
E|----------------------------------------------------|

    You'll be over   


Both guitars

e|----------------|
B|----------------|
G|---9-9-9-9-9----|
D|---9-9-9-9-9----|
A|---7-7-7-7-7----|
E|----------------|

   Take it all away
Tap to rate this tab
 
# A B C D E F G H I J K L M N O P Q R S T U V W X Y Z