Song name
# A B C D E F G H I J K L M N O P Q R S T U V W X Y Z

Ripsipiirakka - Sanni tab

Ripsipiirakka - Sanni
tabbed By Plikk

Säkees basso:
G|---------0-----------0-1---0-1-3-|
D|-----0-1---3-1-0-1-3-----3-------|
A|-1-3-----------------------------|
E|---------------------------------|

Intro:
e|--6-5-3-----3-6-5-5-5-3------6-5-3-----3-6-8-8-8-10-11-10--|
H|--------4-4-------------6-3--------4-4---------------------|
G|-----------------------------------------------------------|
D|-----------------------------------------------------------|
A|-----------------------------------------------------------|
E|-----------------------------------------------------------|

G5        Eb5         F5           Bb5
Mä haluun saada pimppirasiaa Sannilta   x4

Säe 1:
Bb5               Eb5         F5
Ruotsinlaival sun muodot huomasin
Ne mua niin kiihotti et käteen vetäsin
Ekaan iltaan kai liikaa dokasit
Kun sä niin nopeesti sammuit ja oksensit

Väli:
G5       Eb5
Mua haluttaa
F5         Bb5
Mua himottaa
G5       Eb5
Mua panettaa
F5        Bb5
Pää pimahtaa

Mä haluun saada pimppirasiaa Sannilta x4

säe 2: soitetaan samal lail ku eka:
  Tokaan iltaan nyt pitikin käydä näin
  Sä mulle vannoit olevas selvinpäin
  Sä petit lupaukses ja diskos dokasit
  Jonkun ruotsalaisen gigolon sä sieltä pokasit

Väli

Kertosäe
Tap to rate this tab
# A B C D E F G H I J K L M N O P Q R S T U V W X Y Z