Guitaretab - guitar tabs
Song name
# A B C D E F G H I J K L M N O P Q R S T U V W X Y Z

Ripsipiirakka - Tahdon Rakastella Sinua tab

intro:

e -------7h8-7-7--------------------7h8-7-7----------- 
b --8h10---------10----8--8-8--8h10---------10-8h9-10- 
g ----------------------------------------------------     2x
d ---------------------------------------------------- 
a ---------------------------------------------------- 
E ---------------------------------------------------- 


verse :

e  ------------------------------------------------------ 
h  ------------------------------------------------------ 
g  ------------------------------------------------------ 
d  -9--9--7-7-7-5--5-5--5-5-5--9--9--5-5-5-7--7-7--7-7-7- 
a  -7--7--5-5-5-3--3-3--3-3-3--7--7--3-3-3-5--5-5--5-5-5- 
E  ------------------------------------------------------ 
[ Tab from: http://www.guitaretab.com/r/ripsipiirakka/73604.html ]
e  -------------------------------------------------- 
h  -------------------------------------------------- 
g  -------------------------------------------------- 
d  -9--9--7-7-7-5--5-5--5-5-5--9--9--5-5-5-7-7-7-7-7- 
a  -7--7--5-5-5-3--3-3--3-3-3--7--7--3-3-3-5-5-5-5-5- 
E  -------------------------------------------------- 


chorus :

e  ------------------------------------------------------------------- 
h  ------------------------------------------------------------------- 
g  ------------------------------------------------------------------- 
d  ---------7--5-4---------2-2--4--5---------7--5-4---------2-2--4--5- 
a  -5-5-5-5--------2-2-2-2-----------5-5-5-5--------2-2-2-2----------- 
E  -3-3-3-3--------0-0-0-0-----------3-3-3-3--------0-0-0-0----------- 

e  -------------------------------------------- 
h  -------------------------------------------- 
g  -------------------------------------------- 
d  ---------2----------2------2--2--4--4--7--7- 
a  -3-3-5-5----3-3-5-5----5-5------------------ 
E  -------------------------------------------- 


bridge: the same as intro

verse

chorus

solo: ?  rythm is the same as verse

verse

chorus 2x

end: ? rythm is the same as in the verse
Related for Tahdon Rakastella Sinua tab