Song name
# A B C D E F G H I J K L M N O P Q R S T U V W X Y Z

Riptides - The Pale Rider tab

E STANDARD
NOT THE WHOLE SONG SORRY BUT THIS IS MAIN I WILL TRY TO DO THE WHOLE BUT I NEED TO GET 
THE SONG I WENT OFF OF MEMORY LOLZ

|------------------------------------------------------------|
|------------------------------------------------------------|
|-----4-2-0-----------4-2-0-----------4-2-0------------------|
|-2-2-------4--2--0-0-------4--0------------4----------------|
|---------------------------------3-3----------3--2-222-0-2--|
|------------------------------------------------------------|

|------------------------------------------------------------|
|------------------------------------------------------------|
|-----4-2-0-----------4-2-0-----------4-2-0------------------|
|-2-2-------4--2--0-0-------4--0------------4----------------|
|---------------------------------3-3----------3--2-222-0-2--|
|------------------------------------------------------------|

|--------------------------------------------------------|
|-----------------------0--------------------------------|
|---------------2-222-4---4-2-0---------------2-222-0-2--|
|--------0-0000------------------------0-0000------------|
|-3-3333------------------------3-3333-------------------|
|--------------------------------------------------------|

|----------------------------------------------------------|
|----------------------------------------------------------|
|------------------0------------0-2-2-2-2-0----------------|
|--------0-0000-4-----4--2--2-4-------------4-0-2-222-0-2--|
|-3-3333---------------------------------------------------|
|----------------------------------------------------------|
Tap to rate this tab
 
# A B C D E F G H I J K L M N O P Q R S T U V W X Y Z