Song name
# A B C D E F G H I J K L M N O P Q R S T U V W X Y Z

Rise Against - Tour Song tab

Tour Song
By Rise Against (Original by Jawbreaker)

Intro:

Em 

e|-----------------------------|
B|-----------------------------|
G|-----------------------------|
D|-22xxxx-22xxxx-22xxxx-22xxxx-|
A|-22xxxx-22xxxx-22xxxx-22xxxx-|
E|-00xxxx-00xxxx-00xxxx-00xxxx-|


Verse:
  Em  G  D  Em

e|----0--x--------------------|
B|----3--3--------------------|
G|-0--0--2--0-----------------|
D|-2--0--0--2-----------------|	x2
A|-2--x--x--2-----------------|
E|-0--3--x--0-----------------|
	Em
e|-----------------------------|
B|-----------------------------|
G|-----------------------------|
D|-22xxxx-22xxxx-22xxxx-22xxxx-|
A|-22xxxx-22xxxx-22xxxx-22xxxx-|
E|-00xxxx-00xxxx-00xxxx-00xxxx-|

  Em  G  D  Em

e|----0--x--------------------|
B|----3--3--------------------|
G|-0--0--2--0-----------------|
D|-2--0--0--2-----------------|	x2
A|-2--x--x--2-----------------|
E|-0--3--x--0-----------------|

	Em
e|---------------|
B|---------------|
G|---------------|
D|-22xxxx-22xxxx-|
A|-22xxxx-22xxxx-|
E|-00xxxx-00xxxx-|


Pre Chorus:
      C		G	Asus4	B	C	
e|-xxxxxxxx-xxxxxxxx-xxxxxxxx-xxxxxxxx-xxxxxxxx-|
B|-33333333-33333333-33333333-33333333-33333333-|
G|-00000000-00000000-22222222-00000000-00000000-|
D|-xxxxxxxx-00000000-22222222-xxxxxxxx-xxxxxxxx-|
A|-33333333-xxxxxxxx-00000000-22222222-33333333-|
E|-xxxxxxxx-33333333-xxxxxxxx-xxxxxxxx-xxxxxxxx-|

	Em	D
e|-xxxxxxxx-xxxxxxxx-|
B|-33333333-33333333-|
G|-00000000-22222222-|
D|-xxxxxxxx-00000000-|
A|-22222222-xxxxxxxx-|
E|-00000000-xxxxxxxx-|
	C	G	Asus4	B	C
e|-xxxxxxxx-xxxxxxxx-xxxxxxxx-xxxxxxxx-xxxxxxxx-|
B|-33333333-33333333-33333333-33333333-33333333-|
G|-00000000-00000000-22222222-00000000-00000000-|
D|-xxxxxxxx-00000000-22222222-xxxxxxxx-xxxxxxxx-|
A|-33333333-xxxxxxxx-00000000-22222222-33333333-|
E|-xxxxxxxx-33333333-xxxxxxxx-xxxxxxxx-xxxxxxxx-|

	Em	D	A	Em	 D	   C
e|-xxxxxxxx-xxxxxxxx-xxxxxxxx-xxxxxxxx-xxxxxxxx-xxxxxxxx-|
B|-33333333-33333333-33333333-33333333-33333333-33333333-|
G|-00000000-22222222-22222222-00000000-22222222-00000000-|
D|-xxxxxxxx-00000000-22222222-xxxxxxxx-00000000-xxxxxxxx-|	x2
A|-22222222-xxxxxxxx-00000000-22222222-xxxxxxxx-33333333-|
E|-00000000-xxxxxxxx-xxxxxxxx-00000000-xxxxxxxx-xxxxxxxx-|


Chorus:
    Em  G   D   Asus4
e|-x-x-x-x-x-x-x-x-|
B|-3-3-3-3-3-3-3-3-|
G|-0-0-0-0-2-2-2-2-|
D|-x-x-0-0-0-0-2-2-|	x3
A|-2-2-x-x-x-x-0-0-|
E|-0-0-3-3-x-x-x-x-|

    Em  G  D   Aus4
e|-x-x-x-x-x---x-|
B|-3-3-3-3-3---3-|
G|-0-0-0-0-2---2-|
D|-x-x-0-0-0---2-|
A|-2-2-x-x-x---0-|
E|-0-0-3-3-x---x-|

Fill:
(= Intro)


e|-----------------------------|
B|-----------------------------|
G|-----------------------------|
D|-22xxxx-22xxxx-22xxxx-xxxxxx-|
A|-22xxxx-22xxxx-22xxxx-xxxxxx-|
E|-00xxxx-00xxxx-00xxxx-xxxxxx-|

Verse:
   Em G  D  Em
e|----0--x--------------------|
B|----3--3--------------------|
G|-0--0--2--0-----------------|
D|-2--0--0--2-----------------|	x2
A|-2--x--x--2-----------------|
E|-0--3--x--0-----------------|

Pre Chorus:
	C	G 	Asus4	B	C
e|-xxxxxxxx-xxxxxxxx-xxxxxxxx-xxxxxxxx-xxxxxxxx-|
B|-33333333-33333333-33333333-33333333-33333333-|
G|-00000000-00000000-22222222-00000000-00000000-|
D|-xxxxxxxx-00000000-22222222-xxxxxxxx-xxxxxxxx-|
A|-33333333-xxxxxxxx-00000000-22222222-33333333-|
E|-xxxxxxxx-33333333-xxxxxxxx-xxxxxxxx-xxxxxxxx-|

	Em 	D
e|-xxxxxxxx-xxxxxxxx-|
B|-33333333-33333333-|
G|-00000000-22222222-|
D|-xxxxxxxx-00000000-|
A|-22222222-xxxxxxxx-|
E|-00000000-xxxxxxxx-|
	C	G	Ausus4	B	C
e|-xxxxxxxx-xxxxxxxx-xxxxxxxx-xxxxxxxx-xxxxxxxx-|
B|-33333333-33333333-33333333-33333333-33333333-|
G|-00000000-00000000-22222222-00000000-00000000-|
D|-xxxxxxxx-00000000-22222222-xxxxxxxx-xxxxxxxx-|
A|-33333333-xxxxxxxx-00000000-22222222-33333333-|
E|-xxxxxxxx-33333333-xxxxxxxx-xxxxxxxx-xxxxxxxx-|

	Em	D	Asus4	Em	D 	C
e|-xxxxxxxx-xxxxxxxx-xxxxxxxx-xxxxxxxx-xxxxxxxx-xxxxxxxx-|
B|-33333333-33333333-33333333-33333333-33333333-33333333-|
G|-00000000-22222222-22222222-00000000-22222222-00000000-|
D|-xxxxxxxx-00000000-22222222-xxxxxxxx-00000000-xxxxxxxx-|	x2
A|-22222222-xxxxxxxx-00000000-22222222-xxxxxxxx-33333333-|
E|-00000000-xxxxxxxx-xxxxxxxx-00000000-xxxxxxxx-xxxxxxxx-|

Chorus:
    Em   G   D  Asus4
e|-x-x-x-x-x-x-x-x-|
B|-3-3-3-3-3-3-3-3-|
G|-0-0-0-0-2-2-2-2-|
D|-x-x-0-0-0-0-2-2-|	x4
A|-2-2-x-x-x-x-0-0-|
E|-0-0-3-3-x-x-x-x-|

Fill:
    Em   G  D  Asus4
e|-x-x-x-x-x-x-x-x-|
B|-3-3-3-3-3-3-3-3-|
G|-0-0-0-0-2-2-2-2-|
D|-x-x-0-0-0-0-2-2-|	x2
A|-2-2-x-x-x-x-0-0-|
E|-0-0-3-3-x-x-x-x-|

Outro:

(=Chorus 1)
    Em   G   D  Asus4
e|-x-x-x-x-x-x-x-x-|
B|-3-3-3-3-3-3-3-3-|
G|-0-0-0-0-2-2-2-2-|
D|-x-x-0-0-0-0-2-2-|	x3
A|-2-2-x-x-x-x-0-0-|
E|-0-0-3-3-x-x-x-x-|

    Em  G   D   Asus4
E|-x-x-x-x-x---x-|
B|-3-3-3-3-3---3-|
G|-0-0-0-0-2---2-|
D|-x-x-0-0-0---2-|
A|-2-2-x-x-x---0-|
E|-0-0-3-3-x---x-|

************************************

| /   slide up
| \   slide down
| h   hammer-on
| p   pull-off
| ~   vibrato
| +   harmonic
| x   Mute note
| b   Bend
| pb  Pre-bend
| br  Bend release
| pbr Pre-bend release
| brb Bend release bend

************************************
Tap to rate this tab
# A B C D E F G H I J K L M N O P Q R S T U V W X Y Z