Song name
# A B C D E F G H I J K L M N O P Q R S T U V W X Y Z

Rise Against - Hairline Fracture tab

Guitar One
----------------------------------|
----------------------------------|
---4------------------6-6-6-6-6---|
---4------------------6-6-6-6-6---|
---2------------------4-4-4-4-4---| x16
----------------------------------|
                        . . . .

Guitar Two
-------------------------------|
-------------------------------|
--4-4-4-4----------------------|
--x-x-x-x----------------------|
--2-2-2-2----------------------| x a whole lot, then
-------------------------------|

-------------------------------|
-------------------------------|
--3-3-3-3-3-3-3-3--------------|
--x-x-x-x-x-x-x-x--------------|(dont play second time)
--1-1-1-1-1-1-1-1--------------|
-------------------------------|

--x-x-x-x--------------------------|
--x-x-x-x--------------------------|
--x-x-x-x--------------------------|
--x-x-x-x--------------------------|
--x-x-x-x--------------------------|
--x-x-x-x--------------------------|

-------------x-x-x-x---------------x-x-x-x------------------|
-------------x-x-x-x---------------x-x-x-x------------------|
--4--6-6-8-8-x-x-x-x---6--8-9--8-8-x-x-x-x------------------|
--x-/x-x-x-x-x-x-x-x---x--x/x--x-x-x-x-x-x------------------|
--2--4-4-6-6-x-x-x-x---4--6-7--6-6-x-x-x-x------------------|
-------------x-x-x-x---------------x-x-x-x------------------|

------------x-x-x-x-----------------x-x-x-x--------------------|
------------x-x-x-x-----------------x-x-x-x--------------------|
--4-6-6-8-8-x-x-x-x----6-8--11--6-6-x-x-x-x--------------------|
--x/x-x-x-x-x-x-x-x----x/x--x---x-x-x-x-x-x--------------------|
--2-4-4-6-6-x-x-x-x----4-6--9---4-4-x-x-x-x--------------------|
------------x-x-x-x-----------------x-x-x-x--------------------|

 ------------x-x-x-x---------------x-x-x-x------------------|
-------------x-x-x-x---------------x-x-x-x------------------|
--4--6-6-8-8-x-x-x-x---6--8-9--8-8-x-x-x-x------------------|
--x-/x-x-x-x-x-x-x-x---x--x/x--x-x-x-x-x-x------------------|
--2--4-4-6-6-x-x-x-x---4--6-7--6-6-x-x-x-x------------------|
-------------x-x-x-x---------------x-x-x-x------------------|

-----------x-x-x-x---------------------------------------------|
-----------x-x-x-x---------------------------------------------|
-4-6-6-8-8-x-x-x-x---6-8---------------------------------------|
-x/x-x-x-x-x-x-x-x---x/x---------------------------------------|
-2-4-4-6-6-x-x-x-x---4-6---7---9---6----4----6-----------------|
-----------x-x-x-x---------------------------------------------|

any questions put them in the comment area and have fun!
Tap to rate this tab
 
# A B C D E F G H I J K L M N O P Q R S T U V W X Y Z