Guitaretab - guitar tabs
Song name
# A B C D E F G H I J K L M N O P Q R S T U V W X Y Z

Rise Against - Under The Knife tab

----------------------------------------------------------------------------
			     Under the Knife  Rise Against
----------------------------------------------------------------------------
Tabbed by: BSLam
Tuning: Drop D

	Yay my first tab! Sorry if its completely wrong.


| h  hammer-on
| p  pull-off
| .  Palm mute
| x  Mute note

Intro(0:00-0:18)	x3
e|------------------------|----------------|
B|------------------------|----------------|
G|3-3-888p5-555h6-666p55--|----------------|
D|3-3---------------------|1-11114-3-33333-|
A|1-1---------------------|1-11114-3-33333-|
D|------------------------|1-11114-3-33333-|

			x2
e|-----------------------|---------------------|------------------|
B|-----------------------|---------------------|------------------|
G|3-3-888p5-555h6-666p55-|---888p5-555h6-666p55|----------------3x|
D|3-3--------------------|4-4------------------|1-11114-3-33333-3x|
A|1-1--------------------|4-4------------------|1-11114-3-33333-1x|
D|-----------------------|4-4------------------|1-11114-3-33333---|

Verse 1(0:20-0:38):
				x3
e|--------------------------------|--------------------------------|
B|--------------------------------|--------------------------------|
G|----------------3333333333333333|--------------------------------|
D|11111111444444443333333333333333|11111111444444446666666666666666|
A|11111111444444441111111111111111|11111111444444446666666666666666|
D|1111111144444444----------------|11111111444444446666666666666666|
  ................ ............... ................

Prechorus(0:39-0:41)
e|----------------|
B|----------------|
G|6666555533335555|
D|----------------|
A|4444333311113333|
D|----------------|

Chorus(0:42-0:59):						     x2
e|---------------------------------------------------------------------|
B|---------------------------------------------------------------------|
G|66666666------------555566668888--------666655553-3888p5-555h6-666p55|
D|66666666666666668888------------44444444666655553-3------------------|
A|4444444466666666888833334444666644444444444433331-1------------------|
D|--------666666668888------------44444444-----------------------------|

	(1:00-1:05):
e|-----------------------|---------------------|----------------|
B|-----------------------|---------------------|----------------|
G|3-33888p5-555h6-666p55-|---888p5-555h6-666p55|----------------|
D|3-33-------------------|4-4------------------|1-11114-3-------|
A|1-11-------------------|4-4------------------|1-11114-3-------|
D|-----------------------|4-4------------------|1-11114-3-------|
[ Tab from: http://www.guitaretab.com/r/rise-against/145433.html ]
Verse 2(1:06-1:26)
				x4
e|--------------------------------|----------------|
B|--------------------------------|----------------|
G|3333333333333333----------------|----------------|
D|11111111111111111111111144444444|6666666666666666|
A|11111111111111111111111144444444|6666666666666666|
D|----------------1111111144444444|6666666666666666|
   ...............................

Prechorus(1:27-1:29)
e|----------------|
B|----------------|
G|6666555533335555|
D|----------------|
A|4444333311113333|
D|----------------|

Chorus(1:30-1:44):
e|---------------------------------------------------------------------|
B|---------------------------------------------------------------------|
G|66666666------------555566668888--------666655553-3888p5-555h6-666p55|
D|66666666666666668888------------44444444666655553-3------------------|
A|4444444466666666888833334444666644444444444433331-1------------------|
D|--------666666668888------------44444444-----------------------------|

e|------------------------------------------------|
B|------------------------------------------------|
G|66666666------------555566668888--------66665555|
D|66666666666666668888------------4444444466665555|
A|444444446666666688883333444466664444444444443333|
D|--------666666668888------------44444444--------|

Solo(1:45-2:12)
	       x3
e|---------------|------------------|
B|---------------|------------------|
G|---------------|------------------|
D|------------3--|----------3h43----|	Repeat 3 times
A|1h3x33-33x4x-44|1h3x33-33x----4---|
D|---------------|------------------|

Prechorus(2:13-2:17)
e|--------------------------------|
B|--------------------------------|
G|----------------6666555533335555|
D|6666666666666666----------------|
A|66666666666666664444333311113333|
D|6666666666666666----------------|

Chorus(2:18-2:41):
								     x2
e|---------------------------------------------------------------------|
B|---------------------------------------------------------------------|
G|66666666------------555566668888--------666655553-3888p5-555h6-666p55|
D|66666666666666668888------------44444444666655553-3------------------|
A|4444444466666666888833334444666644444444444433331-1------------------|
D|--------666666668888------------44444444-----------------------------|

e|-----------------------|---------------------|----------------|
B|-----------------------|---------------------|----------------|
G|3-33888p5-555h6-666p55-|---888p5-555h6-666p55|3-3x------------|
D|3-33-------------------|4-4------------------|3-3x------------|
A|1-11-------------------|4-4------------------|1-1x------------|
D|-----------------------|4-4------------------|----------------|

============================================================================
Related for Under The Knife tab