Song name
# A B C D E F G H I J K L M N O P Q R S T U V W X Y Z

Riverdales - Look Me Up chords

Highlighted       Show chord diagrams
Song:  "Look Me Up" 
Artist: The Riverdales
Album:  Phase 3
Tuning: Standard



G (let ring)
If you want a good time

              Em     
Why don't you look me up

  G
I never got the chance to make you mine

              Em
Why don't you look me up

C
  I know you got my number around

     D
Just call me up and we'll hit the town

              G
Why don't you look me up

              Em
Why don't you look me up

              C
Why don't you look me up

D               G           G   F#
   If you wanna have fun

Em (palm muted)
I know you're wondering what you're doing there

              G (palm muted)
Why don't you look me up

           Em (palm muted)
He doesn't pay attention to you it's always his career

              G (palm muted)
Why don't you look me up

C              
I always hoped we'd stay in touch

    D     
The other girls I knew I don't miss too much

              G
Why don't you look me up

              Em
Why don't you look me up

              C 
Why don't you look me up

D               G          C   D
   If you wanna have fun



Guitar Solo: (over verse chords)

|---------------------------------------------------------------------|
|------------3-----5--3-----------------------------------------------|
|------4--------4--------4-----4-----4h5p4----------------------------|
|---5-----5-----------------5-----5---------7--5----------------------|
|-------------------------------------------------5--7----------------|
|---------------------------------------------------------------------|

|------------------------------------------------------2--------------|
|------------3-----5-3--------------------5---------------------------|
|------4--------4--------4-----4--------------------------------------|
|---5-----5-----------------5-----5-----------------------------------|
|---------------------------------------------------------------------|
|---------------------------------------------------------------------|

|---3-------5------7--5--3--5-------5--3--2--3--2-----3---------------|
|--------------------------------------------------5------------------|
|---------------------------------------------------------------------|
|---------------------------------------------------------------------|
|---------------------------------------------------------------------|
|---------------------------------------------------------------------| 



G
You used to be a lot of fun

              Em
Why don't you look me up

        G
Now you don't get out or talk to anyone

              Em
Why don't you look me up

C 
Maybe we could put it all to a mend

      D
Yeah, try to find a way to find yourself again

              G
Why don't you look me up

              Em
Why don't you look me up

              C 
Why don't you look me up

D               G          Em   C  
   If you wanna have fun

D               G          Em   C  
   If you wanna have fun

D               G         
   If you wanna have fun

End on G



Tabbed by Alex Nennig (al27@treesprocket.com)


Tap to rate this tab
 
# A B C D E F G H I J K L M N O P Q R S T U V W X Y Z