Song name
# A B C D E F G H I J K L M N O P Q R S T U V W X Y Z

Rivermaya - Inosente Lang Ang Nagtataka tab

Intro

e|--------------------------------------------------------------|
B|------9-------------------------------------------------------|
G|--7/9--9-9-8-6---6h8-6-----------7/9-9-9-9-8-6---6h8----------|
D|---------------9-------9-7-7-7-----------------9-----9-7-7-7--|
A|--------------------------------------------------------------|
E|--------------------------------------------------------------|

e|----------------------------------|
B|------9---9-----------------------|
G|--7/9---9---9-8-6----6h8-6--------|
D|------------------9--------9-7-7--|
A|----------------------------------|
E|----------------------------------|

e|-----------|
B|-----------|
G|-----------|
D|--7-7-9-9--|
A|--7-7-9-9--|
E|--5-5-7-7--|

e|---------------|
B|---------------|
G|--------5-5-5--|3X
D|--5-5-5-5-5-5--|
A|--5-5-5-3-3-3--|
E|--3-3-3--------|

Verse

                 "wala wala....."
e|-----------------------------------------------------------------|
B|-----------------------------------------------------------------|
G|--------3-3-3--------3-3-3--------3-3-3-------3-3-3-------3-3-3--|
D|--5-5-5-3-3-3--5-5-5-3-3-3--5-5-5-3-3-3-5-5-5-3-3-3-5-5-5-3-3-3--|
A|--5-5-5-1-1-1--5-5-5-1-1-1--5-5-5-1-1-1-5-5-5-1-1-1-5-5-5-1-1-1--|
E|--3-3-3--------3-3-3--------3-3-3-------3-3-3-------3-3-3--------|
      "wala ka namang nakikita"
e|------------------------------|
B|------------------------------|
G|---------------------------7--|
D|--5------------------------7--|
A|--5------------------------5--|
E|--3---------------------------|
    "pero ikaw ay tuwang tuwa........................"
  
e|-----------------------------------------------------|
B|-----------------------------------------------------|
G|----------------------------7-7-7-7-7-7-7-7-7-7-7-7--|
D|----------------------------7-7-7-7-7-7-7-7-7-7-7-7--|
A|----------------------------5-5-5-5-5-5-5-5-5-5-5-5--|
E|-----------------------------------------------------|
 "Kayong nagtataka nagtataka nagtataka"
e|-----------------------------------------------------|
B|-----------------------------------------------------|
G|----------------------------------7------------------|3X
D|--5-------------------------------7------------------|
A|--5-------------------------------5------------------|
E|--3--------------------------------------------------|

e|-------------------------------------------------------------------|
B|--------9-----------------------------9---9------------------------|
G|--7/9-9---9-8-6---6h8-6-----------7/9---9---9-8-6---6h8-6----------|
D|----------------9-------9-7-7-7-------------------9-------9-7-7-7--|
A|-------------------------------------------------------------------|
E|-------------------------------------------------------------------|

e|-----------------------------------------------------|
B|-----------------------------------------------------|
G|--7/9-9-9-9-8-6---6h8--------------------------------|
D|----------------9-----9-7-7-7------------------------|
A|-----------------------------------------------------|
E|-----------------------------------------------------|

e|-----------|
B|-----------|
G|-----------|
D|--7-7-9-9--|
A|--7-7-9-9--|
E|--5-5-7-7--|

e|---------------|
B|---------------|
G|--------5-5-5--|3X
D|--5-5-5-5-5-5--|
A|--5-5-5-3-3-3--|
E|--3-3-3--------|

                 "wala wala....."
e|-----------------------------------------------------------------|
B|-----------------------------------------------------------------|
G|--------3-3-3--------3-3-3--------3-3-3-------3-3-3-------3-3-3--|
D|--5-5-5-3-3-3--5-5-5-3-3-3--5-5-5-3-3-3-5-5-5-3-3-3-5-5-5-3-3-3--|
A|--5-5-5-1-1-1--5-5-5-1-1-1--5-5-5-1-1-1-5-5-5-1-1-1-5-5-5-1-1-1--|
E|--3-3-3--------3-3-3--------3-3-3-------3-3-3-------3-3-3--------|

      "wala ka namang naririnig"
e|--------------------------------|
B|--------------------------------|
G|-----------------------------7--|
D|--5--------------------------7--|
A|--5--------------------------5--|
E|--3-----------------------------|

"hindi ka naman nakikinig........................"
  
e|-------------------------------------------------|
B|-------------------------------------------------|
G|------------------------7-7-7-7-7-7-7-7-7-7-7-7--|
D|------------------------7-7-7-7-7-7-7-7-7-7-7-7--|
A|------------------------5-5-5-5-5-5-5-5-5-5-5-5--|
E|-------------------------------------------------|

"Kayong nagtataka nagtataka nagtataka"
e|-----------------------------------------------------|
B|-----------------------------------------------------|
G|----------------------------------7------------------|3X
D|--5-------------------------------7------------------|
A|--5-------------------------------5------------------|
E|--3--------------------------------------------------|

e|-------------------------------------------------------------------|
B|--------9-----------------------------9---9------------------------|
G|--7/9-9---9-8-6---6h8-6-----------7/9---9---9-8-6---6h8-6----------|
D|----------------9-------9-7-7-7-------------------9-------9-7-7-7--|
A|-------------------------------------------------------------------|
E|-------------------------------------------------------------------|

Chorus

e|------------------------------------------------------|
B|------------------------------------------------------|
G|-9----9-9-9-9-9-9-------------------------------------|4x
D|-9----9-9-9-9-9-9--9---9-9-9-9-9-9---7---7-7-7-7-7-7--|
A|-7----7-7-7-7-7-7--9---9-9-9-9-9-9---7---7-7-7-7-7-7--|
E|-------------------7---7-7-7-7-7-7---5---5-5-5-5-5-5--|

Verse

e|----------------------------|
B|----------------------------|
G|--------5-5-5--------3-3-3--|2X
D|--5-5-5-5-5-5--5-5-5-3-3-3--|
A|--5-5-5-3-3-3--5-5-5-1-1-1--|
E|--3-3-3--------3-3-3--------|

   "wala wala....."
e|-----------------------------------------------------------------|
B|-----------------------------------------------------------------|
G|--------5-5-5--------3-3-3--------5-5-5-------3-3-3-------5-5-5--|
D|--5-5-5-5-5-5--5-5-5-3-3-3--5-5-5-5-5-5-5-5-5-3-3-3-5-5-5-5-5-5--|
A|--5-5-5-3-3-3--5-5-5-1-1-1--5-5-5-3-3-3-5-5-5-1-1-1-5-5-5-3-3-3--|
E|--3-3-3--------3-3-3--------3-3-3-------3-3-3-------3-3-3--------|

 "wala ka namang nakikita"
e|------------------------------|
B|------------------------------|
G|---------------------------7--|
D|--5------------------------7--|
A|--5------------------------5--|
E|--3---------------------------|
    "pero ikaw ay tuwang tuwa........................"
  
e|-----------------------------------------------------|
B|-----------------------------------------------------|
G|----------------------------7-7-7-7-7-7-7-7-7-7-7-7--|
D|----------------------------7-7-7-7-7-7-7-7-7-7-7-7--|
A|----------------------------5-5-5-5-5-5-5-5-5-5-5-5--|
E|-----------------------------------------------------|
 "Kayong nagtataka nagtataka nagtataka"
e|-----------------------------------------------------|
B|-----------------------------------------------------|
G|----------------------------------7------------------|3X
D|--5-------------------------------7------------------|
A|--5-------------------------------5------------------|
E|--3--------------------------------------------------|

e|-------------------------------------------------------------------|
B|--------9-----------------------------9---9------------------------|
G|--7/9-9---9-8-6---6h8-6-----------7/9---9---9-8-6---6h8-6----------|
D|----------------9-------9-7-7-7-------------------9-------9-7-7-7--|
A|-------------------------------------------------------------------|
E|-------------------------------------------------------------------|

Chorus

e|------------------------------------------------------|
B|------------------------------------------------------|
G|-9----9-9-9-9-9-9-------------------------------------|4x
D|-9----9-9-9-9-9-9--9---9-9-9-9-9-9---7---7-7-7-7-7-7--|
A|-7----7-7-7-7-7-7--9---9-9-9-9-9-9---7---7-7-7-7-7-7--|
E|-------------------7---7-7-7-7-7-7---5---5-5-5-5-5-5--|
    "hoy    hoy    hoy     hoy"
e|------------------------------|
B|------------------------------|
G|------------------------------|
D|--7-7-7--7-7-7--7-7-7--7-7-7--|
A|--7-7-7--7-7-7--7-7-7--7-7-7--|
E|--5-5-5--5-5-5--5-5-5--5-5-5--|

e|---------------|
B|---------------|
G|--------5-5-5--|3X
D|--5-5-5-5-5-5--|
A|--5-5-5-3-3-3--|
E|--3-3-3--------|

                 "wala wala....."
e|------------------------------------------------------------------------------------------|
B|------------------------------------------------------------------------------------------|
G|--------3-3-3--------5-5-5--------5-5-5-7-7-7-3-3-3-------3-3-3--------3-3-3-------3-3-3--|
D|--5-5-5-3-3-3--5-5-5-5-5-5--5-5-5-5-5-5-7-7-7-3-3-3-5-5-5-3-3-3--5-5-5-3-3-3-5-5-5-3-3-3--|
A|--5-5-5-1-1-1--5-5-5-3-3-3--5-5-5-3-3-3-5-5-5-1-1-1-5-5-5-1-1-1--5-5-5-1-1-1-5-5-5-1-1-1--|
E|--3-3-3--------3-3-3--------3-3-3-------------------3-3-3--------3-3-3-------3-3-3--------|
Tap to rate this tab
# A B C D E F G H I J K L M N O P Q R S T U V W X Y Z