Song name
# A B C D E F G H I J K L M N O P Q R S T U V W X Y Z

Rivermaya - Sleep tab

ahm.. .eto na po ung solo...
first time ko lng po makagawa ng tab...
so... tingnan nyo n lng po kung tama...
kung mali.. paki ayos n lng po.. atleast may onting guide na kau!..


e||----------------------------------------------------------------------------|
B||--9--9--------9p10p9------/12-10-9------7---------9-----------11------------|
G||----------------------11-----------9------8---------10-----------11---------|
D||--------9h11--------------------------6-----6--/8------8--/10-------10------|
A||----------------------------------------------------------------------------|
E||----------------------------------------------------------------------------|

|--/14-12-11------------------------12---------------14-----(12)---||
|------------12-12/14-14----9-10-12------10--12--14----------------||
|------------------------------------------------------------------||
|------------------------------------------------------------------||
|------------------------------------------------------------------||
|------------------------------------------------------------------||


sana po magustuhan nyo...
saka maintindihan.. ^_^V peace!!


P.S.,
    wag po kau magalit sakin kung mali... basta i tried my best..
Tap to rate this tab
# A B C D E F G H I J K L M N O P Q R S T U V W X Y Z