Song name
# A B C D E F G H I J K L M N O P Q R S T U V W X Y Z

Rizal Underground - Yan Naman tab

Help us improve GuitareTab! Take a short survey!
--------------------------------------------------------------------
               yan naman - rizal underground
--------------------------------------------------------------------
Tabbed by:Gary Elechicon
Email:Rephlica@yahoo.com

Tuning:standard



intro:

e|-------------------------------------------------------|
B|---10-----------10-------------------------------------|
G|-------12--11------12--11\7-7--------------------------|
D|-------------------------------------------------------|
A|-----------------------------------------5-------------|
E|------------------------------------5h7----5~~~--------|

e|-------------------------------------------------------|
B|---10-----------10-------------------------------------|
G|-------12--11------12--11\------4--2-----2/4--4\2------|
D|-------------------------------------------------------|
A|-------------------------------------------------------|
E|-------------------------------------------------------|

e|-------------------------------------------------------|
B|---10-----------10-------------------------------------|
G|-------12--11------12--11\7-7--------------------------|
D|-------------------------------------------------------|
A|-----------------------------------------5-------------|
E|------------------------------------5h7----5~~~--------|

e|-------------------------------------------------------|
B|---10-----------10-------------------------------------|
G|-------12--11------12--11\------4--2-------------------|
D|-------------------------------------------------------|
A|-------------------------------------------------------|
E|-------------------------------------------------------|

e|---------------------------7---------------------------|
B|---------------------------7---------------------------|
G|---------------------------7---------------------------|
D|--------------5\4----------9---------------------------|
A|---------5h7---------------9---------------------------|
E|----5h7------------3h5-----7---------------------------|



verse:

e|--7----5-5---3-3---7-7---5-5---3-3---5-5---7-7---------|
B|--7----5-5---3-3---7-7---5-5---3-3---5-5---7-7---------|
G|--7----6-6---4-4---7-7---6-6---4-4---6-6---7-7---------|
D|--9----7-7---5-5---9-9---7-7---5-5---7-7---9-9---------|
A|--9----7-7---5-5---9-9---7-7---5-5---7-7---9-9---------|
E|--7----5-5---3-3---7-7---5-5---3-3---5-5---7-7---------|

Chorus:


   D    A    G                   Bm     A     G
e|---------------------------------------------------------------|
B|---------------------------------------------------------------|
G|---------------------------------------------------------------|
D|---------------------------------------------------------------|
A|---------------------------------------------------------------|
E|---------------------------------------------------------------|

SOLO:

e|-----------------------------------------------------|
B|-----------------------------------------------------|
G|--12--11---------------------------------------------|
D|----------12----10h12-10--9--7--7h9---7p5--7---------|
A|-----------------------------------------------------|
E|-----------------------------------------------------|

e|-----------------------------------------------------------|
B|-----------------------------------------------------------|
G|---12------------------------------------------------------|
D|-------11---12---10h12-10--9-----5/7--7-7---5/7--7-7---7---|
A|---------------------------------5/7--7-7---5/7--7-7---7---|
E|---------------------------------3/5--5-5---3/5--5-5---5---|

e|------------------------------------------------------------|
B|------------------------------------------------------------|
G|----------------------------12p11---12p11----12/14----------|
D|-------------------12h14---------12------12-----------------|
A|-------------12h14------------------------------------------|
E|----12--14--------------------------------------------------|

e|-----------------------------------------------------|
B|-----------------------------------------------------|
G|---12p11----12p11------------------------------------|
D|--------12-------12------------------------12--------|
A|----------------------12h14--12------12h14----12-----|
E|-----------------------------------------------------|

e|---15p14------15p14-----15/17-----15p14-----15p14-----17/19--17-|
B|---------15---------15------------------15--------15------------|
G|----------------------------------------------------------------|
D|----------------------------------------------------------------|
A|----------------------------------------------------------------|
E|----------------------------------------------------------------|

e|--17--14------17---------17/19--19-19b(21)--17-------|
B|----------15-----------------------------------------|
G|-----------------------------------------------------|
D|-----------------------------------------------------|
A|-----------------------------------------------------|
E|-----------------------------------------------------|

e|---------------------------------------------------------------|
B|---------------------------------------------------------------|
G|----12\11--12---12h14----9h11----------------------------------|
D|--------------------------------12\9---9---7-------------------|
A|----------------------------------------------7h9--------------|
E|----------------------------------------------------7-7--------|

e|----------------------------------------------------------------|    
B|----------------------------------------------------------------|     
G|----------------------------------------------------------------|   
D|------------------------------------9/11------------------------|    
A|----------------------7--7/9--9--9------------------------------|   
E|----0-3-3--3-3h5-5----------------------------------------------|     


e|--------------------------------------------------14--15--17-|  
B|---------------------------------14h15p14---17---------------|   
G|-------------------------14h16-------------------------------|    
D|-----------------14h16---------------------------------------|    
A|--12--12--14/16----------------------------------------------|   
E|-------------------------------------------------------------|   

e|--15p14----------19~~~~~--|
B|----------15/17-----------|
G|--------------------------|
D|--------------------------|
A|--------------------------|
E|--------------------------|

| /  slide up
| \  slide down
| h  hammer-on
| p  pull-off
| ~  vibrato
| +  harmonic
| x  Mute note
===========================================================================
Related for Yan Naman tab