Song name
# A B C D E F G H I J K L M N O P Q R S T U V W X Y Z

Robert Johnson - I Believe Ill Dust My Broom tab

 I believe I'll dust my broom                           

Play with capo on first fret



                                                                          
E||--10--10--10--10--10------10--10--10--|--7-----------3--3-----3-------|
B||----------------------10--------------|-----------2-----2--2----------|
G||--------------------------------------|-----------------2--------2----|
D||----------10------9-----------8---8---|--7--x--2-----------------2----|
A||--------------------------------------|-------------------------------|
D||--------------------------------------|-------------------------------|


                                                   
--8---8---8---8---8---8---8-----------------------|
--10--10--10--10--10--10--10----------------------|
--------------------------------------------------|
--------------------------------------------------|
------------------------------x--2--2--0--0--2----|
------------------------------x--0--0--0--0--0----|


                                                                              
--8---8---8---8---8---8---8---8---8---8---8---8---|--5-----------------------|
--10--10--10--10--10--10--10--10--10--10--10--10--|--7-----------------------|
--------------------------------------------------|--------------------------|
--------------------------------------------------|--0--------------------5--|
--------------------------------------------------|-----0--2--2--0--0--2-----|
--------------------------------------------------|-----0--0--0--0--0--0-----|


                                                            
--7--7------------------------|--7--7----------------------|
--------------------------8---|----------------------------|
------------------------------|----------------------------|
--5---------------------------|----------------------------|
--5-----5--7--7--5--5--7----5-|--5-----5--7--7--5--5--7----|
--5-----5--5--5--5--5--5----5-|--5-----5--5--5--5--5--5----|


                                                                              
--8---8---8---8---8---8---10--10--10--10--10--10--|--2------------------5----|
--10--10--10--10--10--10--10--10--10--10--10--10--|--3--------------3/7------|
--------------------------------------------------|--------------------------|
--------------------------------------------------|--------------------------|
--------------------------------------------------|--0--0--2--2--0------0----|
--------------------------------------------------|--0--0--0--0--0-----------|


                                                               
--------------------------------|--7--7-----------------------|
--------------------------------|-----------------------------|
--------------------------------|--------------------------7--|
--2--2--2--2--4--4--2--2--4-----|-----------------------------|
--0--0--0--0--0--0--0--0--------|--5-----5--7--7--5--5--7-----|
-----------------------------5--|--5-----5--5--5--5--5--5-----|


                                                                       
--10--10--10--10--10--10--10--10-----10--|--10----------3--3--3-------|
----------10--10--10----------7---7--7---|--7--------2--------2-------|
-----------------------------------------|-----------------2----------|
--7-------10----------9-------8------8---|--7-----2-------------------|
-----------------------------------------|-----------------------0----|
-----------------------------------------|----------------------------|


                                                                              
--8---8---8---8---8---8---8---8---8---8---8---8---|--10----------------------|
--10--10--10--10--10--10--10--10--10--10--10--10--|--10----------------------|
--------------------------------------------------|--------------------------|
--0---0---0---0-----------0-----------0-----------|--0---x-------------------|
--------------------------------------------------|------0--2--2--0--0--2----|
--------------------------------------------------|------0--0--0--0--0--0----|


                                                                              
--8---8---8---8---8---8---8---8---8---8---8---8---|--2-----------------------|
--10--10--10--10--10--10--10--10--10--10--10--10--|--3-----------------------|
--------------------------------------------------|-----------------------7--|
--0-----------0-----------0-----------0-----------|--0--x--------------------|
--------------------------------------------------|-----0--2--2--0--0--2-----|
--------------------------------------------------|-----0--0--0--0--0--0-----|


                                                            
--7--7------------------------|--7--7----------------------|
--------------------------8---|----------------------------|
------------------------------|----------------------------|
--5---------------------------|----------------------------|
--5-----5--7--7--5--5--7----5-|--5-----5--7--7--5--5--7----|
--5-----5--5--5--5--5--5----5-|--5-----5--5--5--5--5--5----|


                                                                              
--8---8---8---8---8---8---10--10--10--8---10--8---|--2------------------7----|
--10--10--10--10--10--10--10--10--10--10--10--10--|--3--------------3/7------|
--------------------------------------------------|--------------------------|
--0-----------0-----------0-----------0-----------|--x-----------------------|
--------------------------------------------------|--0--0--2--2--0------0----|
--------------------------------------------------|--0--0--0--0--0-----------|


                                                            
--5--5-----------------------|--7--7-----------------------|
-----------------------------|-----------------------------|
--------------------------7--|--------------------------7--|
--2-----2--4--4--2--2--4-----|-----------------------------|
--0-----0--0--0--0--0--0-----|--5-----5--7--7--5--5--7-----|
-----------------------------|--5-----5--5--5--5--5--5-----|


                                                                     
--10--10--10--10--10--10--10--10--10--|--10----------3--3--3-------||
----------10--------------------------|-----------2----------------||
--------------------------------------|-----------------2----------||
--7-------10----------9-------8---8---|--7-----2-------------------||
--------------------------------------|-----------------------0----||
--------------------------------------|----------------------------||
Tap to rate this tab
 
# A B C D E F G H I J K L M N O P Q R S T U V W X Y Z