Song name
# A B C D E F G H I J K L M N O P Q R S T U V W X Y Z

Rocco Deluca And The Burden - Bus Ride tab

Help us improve GuitareTab! Take a short survey!
Highlighted       Show chord diagrams
-------------------------------------------------------------------------------
			     Bus Ride - Rocco DeLuca and the Burden
-------------------------------------------------------------------------------
Tabbed by: Ryan
Email: razadera@comcast.net

Tuning: (Standard) EADGBe 

Chord Chart:
     
     C    Cmaj7   Am   G   F    F/F#    Fm   Am/F#

e|--0------0------0----3---x-----x------1-----0------------------------------|
B|--1------0------1----0---1-----1------1-----1------------------------------|
G|--0------0------2----0---2-----2------1-----2------------------------------|
D|--2------2------2----0---3-----4------3-----x------------------------------|
A|--3------3------0----2---3-----x------3-----x------------------------------|
E|--x------x------x----3---x-----x------------2------------------------------|


Verse 1:

C   Cmaj7 
   Bus ride

          Am
Then i'm cross-town

F
I take my seat

    F/F#
And watch the streets go by

C      Cmaj7
Traffic lights

        Am
Then a left hand turn

F                 F/F#
I'm almost to the street where you live on


Chorus

C    G         Am               F
Can i take you home...to my house

C     G        Am               F
Can i take you home...to my house


Verse 2:

C     Cmaj7
Next block

         Am
That is my stop

F               F/F#
I close my eyes visualize the day

C         Cmaj7
Three steps 

            Am 
Two knocks on your door

F      
The doorknob turns

   F/F#
My stomach burns to say


Chorus:

C     G        Am                F
Can i take you home...to my house

C     G        Am                F
Can i take you home...to my house


Bridge:

Am 
There's no wall

Am/F#                 G
There's no ceiling shadow

G
I can finally show you

Am               Am/F#             G
Without a chair without a door or window

Fm (hold)
To climb through


Chorus:

C     G        Am                F
Can i take you home...to my house

C     G        Am                F
Can i take you home...to my house

C     G        Am                F
Can i take you home...to my house

C     G        Am
Can i take you home

F              C  
Can i take you home

G           Am           F       Fm  C     
Can i take you home...to my house

End on C


I'm 90% sure on this one. Listen to the song to get the strum pattern and chord changes.





Related for Bus Ride tab