Song name
# A B C D E F G H I J K L M N O P Q R S T U V W X Y Z

Rock Kills Kid - Raise Your Hands tab

e|----8--------8--------6--------3--------8---------8--------6---------------|
B|--8--------8--------6--------4--------8---------8--------6-----------------|
G|8--------8--------7--------5--------8--------8---------7-------------------|
D|---------------------------------------------------------------------------|
A|---------------------------------------------------------------------------|
E|---------------------------------------------------------------------------|
      ***Chorus starts here***      
e|----3----8--66--------8--66------------------------------------------------|
B|--4-----------88668----88--88668-----8-6-8-6-4-11---1--8-6-8-4-11--1-------|
G|5-------------------------------------------------33-------------33--------|
D|---------------------------------------------------------------------------|
A|---------------------------------------------------------------------------|
E|---------------------------------------------------------------------------|
                                                   ***Chorus ends here***
e|8--66------8---66----------------------------------------------------------|
B|-88--88668---88--88668----8-6-8-6-4-11--1--8-6-8-4-1--1--------------------|
G|--------------------------------------33----------------33-----------------|
D|---------------------------------------------------------------------------|
A|---------------------------------------------------------------------------|
E|---------------------------------------------------------------------------|
    ***Repeat the chorus twice more in time with the song before this part***
e|----8-------8--------6--------3--------8-10-8---------8-------6-8-6--------|
B|--8-------8--------6--------4--------8-------8-----8--------6-------6------|
G|8-------8--------7--------5--------8----------8--8--------7----------7----5|
D|---------------------------------------------------------------------------|
A|---------------------------------------------------------------------------|
E|---------------------------------------------------------------------------|
                                                  *Distortion on these notes*
e|--3----8--66---------8--66-------------------------------------------------|
B|4-------88--88668-----88--88668----8-6-8-6-4-1--1-----8-8-88-88888---------|
G|----------------------------------------------33---------------------------|
D|---------------------------------------------------------------------------|
A|---------------------------------------------------------------------------|
E|---------------------------------------------------------------------------|
                                                 *Distortion*
e|8--66-------8--66----------------------------------------------------------|
B|-88--88668---88--886686-8-8-6-8-6-4-1--1-8-8888-8-8-8888-8-88-8-8-8-88-----|
G|-------------------------------------33------------------------------------|
D|---------------------------------------------------------------------------|
A|---------------------------------------------------------------------------|
E|---------------------------------------------------------------------------|

e|---------------------------------------------------------------------------|
B|8-88-8-8-8-88---8-88-8-8-8-88--8-6-8-6-4-1--1--8-8-8-8-88888--8-88-8-6-66-4|
G|------------------------------------------33-------------------------------|
D|---------------------------------------------------------------------------|
A|---------------------------------------------------------------------------|
E|---------------------------------------------------------------------------|

e|-------------------8--66--------8--66--------------------------------------|
B|4--8-8-6-4-6-8-88---88--88668----88--88668---------------------------------|
G|---------------------------------------------------------------------------|
D|---------------------------------------------------------------------------|
A|---------------------------------------------------------------------------|
E|------------------------------8-----------8--------------------------------|


Tap to rate this tab
# A B C D E F G H I J K L M N O P Q R S T U V W X Y Z