Song name
# A B C D E F G H I J K L M N O P Q R S T U V W X Y Z

Rocket Summer - Shes My Baby tab

she's my baby
by bryce avary

this is my first tabs so i hope its okay, theres not much to the song, just listen to
song to know when to change chords and how many times you are suppose to play things. riff
is the intro, outro and chorus, riff 2 is the first part of the verse and riff 3 is the
part, riff 4 comes in when bryce sings " because i just dusted " and on the 4th
u play the riff add the second part
there are probably a bunch of mistakes but w/e i hope it helps some of you

riff 1
e:---4---4---4---4---5---5- |
b:--3---3---3---3---3---3-- |
g:-6---6---6---6---6---6--- |
d:--------------------------|
a:--------------------------|
e:--------------------------|

riff 2
e:-5------3------5------9- ---|
b:-5------3------5------10----|
g:-6------4------6------9-----|
d:----------------------------|
a:----------------------------|
e:----------------------------|

riff 3
e:-------12---------12-----------12--------------------------|
b:-------------9----------9-10-------10-9--------------------|
g:-11-------11-----------------------------9-----7-----9-----|
d:-----------------------------------------------------------|
a:-----------------------------------------------------------|
e:-----------------------------------------------------------|

riff 4
e:-9---10---|                       e:-12--16---------|
b:-10--10---|                       b:-12----12-------|
g:-9---11---|           4x        g:-13 ------13------|
d:----------|                        d:---------------|
a:----------|                        a:---------------|
e:----------|                        e:---------------|

end on
e:-5---|
b:-5---|
g:-6---|
d:-----|
a:-----|
e:-----|
Tap to rate this tab
 
# A B C D E F G H I J K L M N O P Q R S T U V W X Y Z