Song name
# A B C D E F G H I J K L M N O P Q R S T U V W X Y Z

Rocksteddy - Magpakailanman tab

Magpakailanman - Rocksteddy

Tabbed by: Jomar Ebuenga
For: April Valdez

e---------------------------------------------------------------------------------|     
b-----15/17-17\15-14-15-17-17--15-14-14h15-14-12----------------------------------|
g--14-------------------------------------------14-14/16--------------------------|
D--------------------------------------------------------16\14-14-16-14-----------|
A---------------------------------------------------------------------------------|
E---------------------------------------------------------------------------------|

e---------------------------------------------------------------14h16-17-17/19-17-|
b---------------------------------------------------15-14-15-14-------------------|
g---------------------------------14----------14-16-------------------------------|
D--12p11h12-14-----------------------16-14-16-------------------------------------|
A--------------12-14-14/16--14----------------------------------------------------|
E------------------------------17-------------------------------------------------|

Tap to rate this tab
 
# A B C D E F G H I J K L M N O P Q R S T U V W X Y Z